Tool - Sober Chords & Tabs

 

Sober Chords & Tabs

Tool Chords & Tabs

Version: 5 Type: Tab 0 ratings
1 star 2 stars 3 stars 4 stars 5 stars
comments

Sober Tab

   
Artist: tool
Song: sober
Album: under tow

^ bend 
x dead note
/ slid
drop d
*let ring                  
               
BASS PLAYS 
THEN LET GUITAR RING ON ITS OWN
1---------------------------------------------------------------|
2---10*----10--10-10101010101010101010101010101010101010101010--|
3---14*----14--14-14141414141414141413131313131312121212121212--|
4---------------------------------------------------------------|
5---------------------------------------------------------------|
6---------------------------------------------------------------|
      let ring
1---------------|
2---3------3----|
3---2------3----|
4---0------0----|repeat two times
5---------------|
6---------------|

1---------------------------------------------------------------------------
2---------------------------------------------------------------------------
3--/141414141414121212121212151515151515121212121212141414141414121212121212
4---0------0-----0-----0-----0-----0-----0-----0-----0-----0-----0-----0----
5---------------------------------------------------------------------------
6---------------------------------------------------------------------------

1-------------------------------------------------------|
2-------------------------------------------------------|
3--141414141414121212121212151515151515/171717171717----|
4--0-----0------0-----0-----0-----0------0----0----0----|
5-------------------------------------------------------|
6-------------------------------------------------------|
   LET RING
1--------------|
2--------------|
3---2-------3--|repeat two times
4---0-------0--|
5--------------|
6--------------|

1-----------------------------------------------------------|
2-----------------------------------------------------------|
3--222222-000000-3333333-000000-222222-000000-33333/555555--|
4--0--0---0--0---0---0---0---0--0--0---0---0--0---0-0--0-0--|
5-----------------------------------------------------------|
6-----------------------------------------------------------|

1-----------------------------------------------------|
2-----15--------15-----15-----16---------16------16---|
3-----14--------14-----14-----15---------15------15---|
4-----------------------------------------------------|
5-1212X121212X12X12X1212X121212X12X12X1212X121212X12X-|
6-1212x121212X12X12X1212X121212X12X12X1212X121212X12X-|

1-----------------------------------------------------------------|
2-----15--------15-----15-----16---------16------16-161616161616--|
3-----14--------14-----14-----15---------15------15-151515151515--|
4-----------------------------------------------------------------|
5-1212x121212x12x12x1212x121212x12x12x1212x121212x12--------------|
6-1212x121212x12x12x1212x121212x12x12x1212x121212x12--------------|

1---------------------|
2--3------3--------4--|
3--2------2--------3--|
4--0---------------0--|repeat four times
5--0---------------0--|
6--0---------------0--|
[ Tab from: http://www.guitartabs.cc/tabs/t/tool/sober_tab_ver_5.html ]
        solo
1--------------------5-------------------|
2----------------------------------------|
3----------------------------------------|
4-----/7---8--8^--7-------8--8/10--10----|
5----------------------------------------|
6----------------------------------------|

1------------|
2------------|
3--2------3--|
4--0------0--|
5------------|
6------------|

1------------------------------------------------------------|
2------------------------------------------------------------|
3---222222-000000-333333-000000-222222-000000-333333/555555--|
4---0--0---0--0---0--0---0--0---0--0---0--0---0--0---0--0----|
5------------------------------------------------------------|
6------------------------------------------------------------|



1-----------------------------------------------------|
2-----15--------15-----15-----16---------16------16---|
3-----14--------14-----14-----15---------15------15---|
4-----------------------------------------------------|
5-1212X121212X12X12X1212X121212X12X12X1212X121212X12X-|
6-1212x121212X12X12X1212X121212X12X12X1212X121212X12X-|

1-----------------------------------------------------------------|
2-----15--------15-----15-----16---------16------16-161616161616--|
3-----14--------14-----14-----15---------15------15-151515151515--|
4-----------------------------------------------------------------|
5-1212x121212x12x12x1212x121212x12x12x1212x121212x12--------------|
6-1212x121212x12x12x1212x121212x12x12x1212x121212x12--------------|

   play four times 
1---------------------|-----------------|
2--3------3--------4--|----3------/15*--|
3--2------2--------3--|----2------/14*--|
4--0---------------0--|----0------------|
5--0---------------0--|----0------------|
6--0---------------0--|----0------------|


1---------------------------1717171717--|
2---------------------------2020202020--|
3---------------------------------------|
4-------7777777---88--88----------------|
5-------5555555---66--66----------------|
6---------------------------------------|

1---------------------|
2--3------3--------4--|
3--2------2--------3--|
4--0---------------0--|repeat four times
5--0---------------0--|
6--0---------------0--|

1---------------------------------------------------------------|
2----3333333/4444444-66666666--3333333-3333333/4444444-6666666--|
3----2222222/3333333-33333333--7777777-2222222/3333333-3333333--|
4---------------------------------------------------------------|
6---------------------------------------------------------------|
5---------------------------------------------------------------|

1---------------------------------------------------------------------------
2-3/1515151515151515151515/16161616161616151515151515151515151515/1616161616
3-2/1717171717141414141414/15151515151515171717171717141414141414/1515151515
4---------------------------------------------------------------------------
5---------------------------------------------------------------------------
6---------------------------------------------------------------------------

1------------------------|
2------------------------|
3------------------------|
4----77---77---88---88---|
5----55---55---66---66---|
6------------------------|

this is a kick ass song and very easy to play
                                                 enjoy.
Comments