Tool - Schism Chords & Tabs

 

Schism Chords & Tabs

Tool Chords & Tabs

Version: 8 Type: Tab 0 ratings
1 star 2 stars 3 stars 4 stars 5 stars
comments

Schism Tab

Aight this song is pretty simple...D.A.R on ver. 10 is right bout the intro and berse part.  I am doin' the solo and the heavy parts.  generally simple, I play this song in E flat to get more of a deeper distortion, but it will work on drop d...

The heavy part after the one verse.  Listen to the song to
|-------------------------------------------get the tempos
|-------------------------------------------and timing and
|-------------------------------------------stuff.
|--0-x-3-x-5p3-x-3-x-5-x-8h10---------------
|--0-x-3-x-5p3-x-3-x-5-x-8h10---------------
|--0-x-3-x-5p3-x-3-x-5-x-8h10---------------
[ Tab from: http://www.guitartabs.cc/tabs/t/tool/schism_tab_ver_8.html ]
Solo...He uses a weird ass wha on this part...bass might  
|-------------------------------------------play some parts
|-------------------------------------------too.
|-9--12--9--14--9--12--9--7--7h9--5--7--5--7
|-000000000000000000000000000000000000000000
|-------------------------------------------
|-------------------------------------------
The 7h9 part is used later...like the second to last time he plays it...again listen to the song to figure out how many times and the tempo and stuff...play the open 0's palm muted.

Outro
|-------------------------------------------
|-------------------------------------------
|-------------------------------------------
|-0-0-12-0-0-13-0-10------------------------
|-0-0-12-0-0-13-0-10------------------------
|-0-0-12-0-0-13-0-10------------------------
  -^-    -^-    ^
   \______|____/    Listen to the song to find the tempo and
     PALM MUTED     # of times adam plays it...e-mail me at 
                    Vayneknot2626@aol.com for corrections!
Comments