Tool - Schism Chords & Tabs

 

Schism Chords & Tabs

Tool Chords & Tabs

Version: 3 Type: Tab 0 ratings
1 star 2 stars 3 stars 4 stars 5 stars
comments

Schism Tab

Tool - Schism.
Tabbed by Adam "BuRnouT" Sk8erkid4eva@yahoo.com.
  
#----------------------------------PLEASE NOTE---------------------------------#
#This file is the author's own work and represents their interpretation of the #
#song. You may only use this file for private study, scholarship, or research. #
#------------------------------------------------------------------------------##
Tool - Schism
Tabbed By - Adam "BurNout" (sk8erkid4eva@yahoo.com)
NOTES :: NO GAURANTEE OF ACCURACY BUT IT SOUNDS RIGHT TO ME!
This song was just about hard as hell to tab! = < And I doubt it is even right! I just 
thought I would try it cuz' no one else has the tab...

Tuning - Drop D 

[Intro play it once]
|---------------------|
|---------------------|
|---------------------|
|-7-5-3-1--7-5-3-7----|
|-9-7-5-3--9-7-5-9----|
|---------------------|

[Riff #3]
[hehe the really long break time in between the beginning and end with the heavy riff]
|------------------------------|
|------------------------------|
|-7--12--9--14--5--7--9--11----|
|------------------------------|
|------------------------------|
|------------------------------|
[ Tab from: http://www.guitartabs.cc/tabs/t/tool/schism_tab_ver_3.html ]
[Riff 2]
[This is the riff that is playin just about the whole time]
[Can't really use it without 2 guitars]
((The trick to getting this to sound like the song is to strum slowly))
((So that you get the individual string sounds. not the chord sound))
|---------------------|
|---------------------|
|-7-5-7-10-7--9/12----|
|-9-7-9-12-9--9/12----|
|-9-7-9-12-9--9/12----|
|---------------------|
              \  /
               \/
              Play this only after about the 6th time you repeated
              the riff, and only before the heavy riff.

[the afformentioned heavy riff]
[comes after that really long break time thing.]
|------------------------------------|
|------------------------------------|
|-7----7----5----5----3----3----1----|
|-7----7----5----5----3----3----1----|
|-9----9----7----7----5----5----3----|
|-9----9----7----7----5----5----3----|


|-----------|-----------|-----------|------|
|-----------|-----------|-----------|------|
|-7----7----|-5----5----|-3----3----|-5----|
|-7----7----|-5----5----|-3----3----|-5----|
|-9----9----|-7----7----|-5----5----|-7----|
|-9----9----|-7----7----|-5----5----|-7----|


OK SO THE SONG GOES LIKE THIS ORDER
-----------------------------------
1 play the short intro
2 After playing the 2nd riff for a long time you jump into riff 3 
if you have 2 guitars you continuously play the 2nd riff for most of the song
3 after repeating riff 3 about a dozen or so times you hit the heavy riff and
the end of the song. This is the only time that the 2nd riff isn't playing!

***************************************************************************************
* Generated using Power Tab Editor by Brad Larsen - http://powertab.guitarnetwork.org *
*************************************************************************************** 
:: Ultimate Guitar Archive :: 
http://www.ultimate-guitar.com 

Comments