Tool - Schism Chords & Tabs

 

Schism Chords & Tabs

Tool Chords & Tabs

Version: 2 Type: Tab 1 rating
1 star 2 stars 3 stars 4 stars 5 stars
comments

Schism Tab

tool
schism
this is done in drop d tunning (DADGBe)
this is all i know of this song and so far the best tab out here
the reason the name was wrong was cuz this site wouldnt accept it 
otherwise


e----------------------------------------------------------------
b----------------------------------------------------------------
g--7--5--5--7----repeat------------------------------------------
d--8--7--5--7----------------------------------------------------
a----------------------------------------------------------------
d----------------------------------------------------------------
this is the intro

e----------------------------------------------------------------
b----------------------------------------------------------------
g----------------------------------------------------------------
d---------3--2-------------3--2--5-------------------------------
a--0h3h5------------0h3h5----------------------------------------
d----------0--0-0-----------0--0--0-0----------------------------



e----------------------------------------------------------------
b--3-------------------------------------------------------------
g--2-------------------------------------------------------------
d--0-------------------------------------------------------------
a--0-------------------------------------------------------------
d--0-------------------------------------------------------------


[ Tab from: http://www.guitartabs.cc/tabs/t/tool/schism_tab_ver_2.html ]
e----------------------------------------------------------------
b----------------------------------------------------------------
g------3---2------3---2--5---------------------------------------
d--0-0---0----0-0---0--0-----------------------------------------
a----------------------------------------------------------------
d----------------------------------------------------------------
   palm mute this



e--1-----------3---------5----------------------------------------
b----3----------3---------3---------------------------------------
g----2----------2---------2---------------------------------------
d----0----------0---------0---------------------------------------
a----0----------0---------0---------------------------------------
d----0----------0---------0---------------------------------------
    16 beats   4 beats    4 beats 

strum this set bottom to top



e----------------------------------------------------------------
b----------------------------------------------------------------
g--------5--4-------------5--4-7---------------------------------
d--0h5h7--0--0-0--0h5h7-0--0--0--0-0-----------------------------
a----------------------------------------------------------------
d----------------------------------------------------------------




e----------------------------------------------------------------
b----------------------------------------------------------------
g----------------------------------------------------------------
d--0--3--5-3--3--5-5---------------------------------------------
a--0--3--5-3--3--5-5---------3-----------------------------------
d--0--3--5-3--3--5-5---0h3h5-------------------------------------




e----------------------------------------------------------------
b----------------------------------------------------------------
g--9-9--12-12--9-9--14-14--7-7--5-5--7--5-7----------------------
d----------------------------------------------------------------
a----------------------------------------------------------------
d----------------------------------------------------------------
Comments