Tool - Schism Chords & Tabs

 

Schism Chords & Tabs

Tool Chords & Tabs

Version: 14 Type: Tab 0 ratings
1 star 2 stars 3 stars 4 stars 5 stars
comments

Schism Tab

   
Gtr I (D A D G B E) - 'Clean electric'
Gtr II (D A D G B E) - 'Gtr I w/dist'
Gtr III (D A D G B E) - 'Rhythm w/dist'
Gtr IV (D A D G B E) - 'Synth arr. for guitar'

Intro
  Q=72
 4/4
  Gtr I
  Q  Q  Q  Q    Q  Q  Q  Q    +W
|-------------|-------------|--------||
|-------------|-------------|--------||
|-3--2--5--7--|-3--2--5--7--|-(7)----||
|-0--3--5--8--|-0--3--5--7--|-(7)----||
|-------------|-------------|--------||
|-------------|-------------|--------||


  Faster Q=110
 5/8     7/8       5/8
  W       W         W
|-------|---------|------|
|-------|---------|------|
|-------|---------|------|
|-------|---------|------|
|-------|---------|------|
|-------|---------|------|


 7/8         5/8          7/8          5/8          7/8
  Gtr II
  <
                                                             |-3-|
  h..         +h     +e    +h..         +h     +e    h.      s s s
|-----------|------------|------------|------------|---------------|
|-----------|------------|------------|------------|---------------|
|-----------|------------|------------|------------|---------------|
|-0---------|-(0)----(0)-|-(0)--------|-(0)----(0)-|-0-------0h3h5-|
|-0---------|-(0)----(0)-|-(0)--------|-(0)----(0)-|-0-------------|
|-0---------|-(0)----(0)-|-(0)--------|-(0)----(0)-|-0-------------|


                   1.,2.,3.               4.
   5/8             7/8
    pm--------------------------------------|
            |-3-|               |-3-|
    E E E E s s s   E E E E E E s s s     E E E E E E E
||----------------|--------------------||---------------||
||o---------------|-------------------o||---------------||
||--3---2---------|-3---2---5----------||-3---2---5-----||
||----0---0-0h3h5-|---0---0---0-0h3h5--||---0---0---0---||
||o---------------|-------------------o||---------------||
||----------------|--------------------||-------------0-||


 verse 1
 5/8        7/8            5/8          7/8
  h    +E    +h.      +E    +h     +E    +h.      +E
|----------|--------------|------------|--------------|
|----------|--------------|------------|--------------|
|-7----(7)-|-(7)------(7)-|-(7)----(7)-|-(7)------(7)-|
|----------|--------------|------------|--------------|
|----------|--------------|------------|--------------|
|----------|--------------|------------|--------------|


 5/8          7/8            5/8          7/8
  +h     +E    +h.      +E    +h     +E    +h.      +E
|------------|--------------|------------|--------------|
|------------|--------------|------------|--------------|
|-(7)----(7)-|-(7)------(7)-|-(7)----(7)-|-(7)------(7)-|
|------------|--------------|------------|--------------|
|------------|--------------|------------|--------------|
|------------|--------------|------------|--------------|


 5/8        7/8            5/8          7/8
  E E E q    +h.      +E    +h     +E    +h.      +E
|----------|--------------|------------|--------------|
|----------|--------------|------------|--------------|
|-7--------|--------------|------------|--------------|
|---0------|--------------|------------|--------------|
|-----5----|--------------|------------|--------------|
|-------0--|-(0)------(0)-|-(0)----(0)-|-(0)------(0)-|


 5/8           7/8            5/8            7/8
                                                       pm---|
                                                       |--3--|
  E E E E +E    +h.      +E     E E E E +E    +h.      s  s  s
|-------------|--------------|--------------|------------------|
|-8-----------|--------------|-10-----------|------------------|
|---7---------|--------------|----7---------|------------------|
|-----0-------|--------------|------0-0-(0)-|-(0)--------------|
|-------------|--------------|--------------|----------0h10h12-|
|-------0-(0)-|-(0)------(0)-|--------------|------------------|


 5/8                7/8
   pm---------------------------------------
           |--3--|                 |--3--|
   E E E E s  s  s    E E E E  E E s  s  s
|------------------|-----------------------|
|------------------|-----------------------|
|------------------|-----------------------|
|-10---9-----------|-10---9---12-----------|
|----0---0-0h10h12-|----0---0----0-0h10h12-|
|------------------|-----------------------|


 5/8                7/8
 ---------------------------------------|
           |--3--|                 |--3--|
   E E E E s  s  s    E E E E  E E s  s  s
|------------------|------------------------|
|------------------|------------------------|
|------------------|------------------------|
|-10---9-----------|-10---9---12------------|
|----0---0-0h10h12-|----0---0----0-0h10h12--|
|------------------|------------------------|


 5/8                7/8
   pm---------------------------------------
           |--3--|                 |--3--|
   E E E E s  s  s    E E E E  E E s  s  s
|------------------|-----------------------|
|------------------|-----------------------|
|------------------|-----------------------|
|-10---9-----------|-10---9---12-----------|
|----0---0-0h10h12-|----0---0----0-0h10h12-|
|------------------|-----------------------|


 5/8                7/8
 -------------------------|
           |--3--|                 |--3--|
   E E E E s  s  s    E E E E  E E s  s  s
|------------------|------------------------||
|------------------|------------------------||
|------------------|------------------------||
|-10---9-----------|-10---9---12------------||
|----0---0-0h10h12-|----0---0----0-0h10h12--||
|------------------|------------------------||


                       1.,2.,3.                   4.
   6/8                 7/8
                                                                 pm--|
              |--3--|                 |--3--|                    |-3-|
     E E E q  s  s  s    E E E E  E E s  s  s      E E E E  E E  s s s
||--------------------|------------------------||-----------------------||
||o-------------------|-----------------------o||-----------------------||
||--------------------|------------------------||-----------------------||
||--10---9------------|-10---9---12------------||-10---9---12----0h5h7--||
||o----0---0--0h10h12-|----0---0----0-0h10h12-o||----0---0----0---------||
||--------------------|------------------------||-----------------------||


 verse 2, 3
  $
 5/8             7/8                 5/8             7/8
  pm------------------------------------------------------------------|
          |-3-|               |-3-|           |-3-|               |-3-|
  E E E E s s s   E E E E E E s s s   E E E E s s s   E E E E E E s s s
|---------------|-------------------|---------------|--------------------|
|---------------|-------------------|---------------|--------------------|
|-5---4---------|-5---4---7---------|-5---4---------|-5---4---7----------|
|---0---0-0h5h7-|---0---0---0-0h5h7-|---0---0-0h5h7-|---0---0---0-0h5h7--|
|---------------|-------------------|---------------|--------------------|
|---------------|-------------------|---------------|--------------------|


 5/8             7/8                 5/8             7/8
  pm------------------------------------------------------------------|
          |-3-|               |-3-|           |-3-|               |-3-|
  E E E E s s s   E E E E E E s s s   E E E E s s s   E E E E E E s s s
|---------------|-------------------|---------------|--------------------|
|---------------|-------------------|---------------|--------------------|
|-5---4---------|-5---4---7---------|-5---4---------|-5---4---7----------|
|---0---0-0h5h7-|---0---0---0-0h5h7-|---0---0-0h5h7-|---0---0---0-0h5h7--|
|---------------|-------------------|---------------|--------------------|
|---------------|-------------------|---------------|--------------------|


 5/8             7/8                 5/8             7/8
  pm------------------------------------------------------------------|
          |-3-|               |-3-|           |-3-|               |-3-|
  E E E E s s s   E E E E E E s s s   E E E E s s s   E E E E E E s s s
|---------------|-------------------|---------------|--------------------|
|---------------|-------------------|---------------|--------------------|
|-5---4---------|-5---4---7---------|-5---4---------|-5---4---7----------|
|---0---0-0h5h7-|---0---0---0-0h5h7-|---0---0-0h5h7-|---0---0---0-0h5h7--|
|---------------|-------------------|---------------|--------------------|
|---------------|-------------------|---------------|--------------------|


 5/8             7/8                 5/8
  pm----------------------------------------------|
          |-3-|               |-3-|           |-3-|
  E E E E s s s   E E E E E E s s s   E E E E s s s
|---------------|-------------------|---------------|
|---------------|-------------------|---------------|
|-5---4---------|-5---4---7---------|-5---4---------|
|---0---0-0h5h7-|---0---0---0-0h5h7-|---0---0-0h5h7-|
|---------------|-------------------|---------------|
|---------------|-------------------|---------------|


                                    to coda
 7/8                    6/8
  pm------|
               |-3-|               |--3--|
  E E E E E E  s s s      E E E q  s  s  s
|--------------------||--------------------|
|--------------------||o-------------------|
|-5---4---7----------||--------------------|
|---0---0---0--0h5h7-||--10---9------------|
|--------------------||o----0---0--0h10h12-|
|--------------------||--------------------|


 1.,2.,3.,d.s.              4.
 7/8
                |--3--|
   E E E E  E E s  s  s  4x  E E E E  q.
|------------------------||----------------||
|-----------------------o||----------------||
|------------------------||----------------||
|-10---9---12------------||-10---9---12\---||
|----0---0----0-0h10h12-o||----0---0-------||
|------------------------||----------------||


 chorus
 4/4                     2/4           4/4
                              |-3-|
  e s s e s s e e s s e   e e s s s e   e s s e s s e e s s e
|-----------------------|-------------|-----------------------|
|-----------------------|-------------|-----------------------|
|-----------------------|-------------|-----------------------|
|-----------------------|-------------|-----------------------|
|-0-x-x-3-x-x-5-3-x-x-3-|-5-5-------3-|-0-x-x-3-x-x-5-3-x-x-3-|
|-0-x-x-3-x-x-5-3-x-x-3-|-3-3-0h3h5---|-0-x-x-3-x-x-5-3-x-x-3-|


 2/4           4/4                     2/4
      |-3-|                                 |-3-|
  e e s s s e   e s s e s s e e s s e   e e s s s e
|-------------|-----------------------|-------------|
|-------------|-----------------------|-------------|
|-------------|-----------------------|-------------|
|-------------|-----------------------|-------------|
|-5-5-------3-|-0-x-x-3-x-x-5-3-x-x-3-|-5-5-------3-|
|-3-3-0h3h5---|-0-x-x-3-x-x-5-3-x-x-3-|-3-3-0h3h5---|


                                                     d.s. al coda
 4/4                       3/8          5/8       7/8
                                |-3-|                        |-3-|
  e s s e s s s s e s s e   e e s s s    q  e q    h     q   s s s
|-------------------------|-----------||---------|-----------------||
|-------------------------|-----------||---------|-----------------||
|-------------------------|-----------||---------|-----------------||
|-------------------------|-----------||---------|-----------0h5h7-||
|-0-x-x-3-x-x-3h5-3-x-x-3-|-5-5-------||-3-------|-----------------||
|-0-x-x-3-x-x-3h5-3-x-x-3-|-3-3-0h3h5-||---------|-----------------||

  &
                |--3--|                 |--3--|
   E E E E  E E s  s  s    E E E E  E E s  s  s
|-----------------------|-----------------------|
|-----------------------|-----------------------|
|-----------------------|-----------------------|
|-10---9---12-----------|-10---9---12-----------|
|----0---0----0-0h10h12-|----0---0----0-0h10h12-|
|-----------------------|-----------------------|


 3/8      6/8                  2/8
                  |--3--|
   E E E   E  E E s  s  s E E   E E
|--------|--------------------|-----|
|--------|--------------------|-----|
|--------|--------------------|-----|
|-10---9-|---12-----------0---|-9---|
|----0---|-0----0-0h10h12---0-|---0-|
|--------|--------------------|-----|

[ Tab from: http://www.guitartabs.cc/tabs/t/tool/schism_tab_ver_14.html ]
 6/8                                         2/8   6/8
       |--3--|                 |--3--|                   |--3--|
   E E s  s  s  E E E   E  E E s  s  s  E E   E E    E E s  s  s  E E E
|---------------------|---------------------|-----|----------------------|
|---------------------|---------------------|-----|----------------------|
|---------------------|---------------------|-----|----------------------|
|-12-----------10---9-|---12-----------10---|-9---|-12-----------10---9--|
|----0-0h10h12----0---|-0----0-0h10h12----0-|---0-|----0-0h10h12----0----|
|---------------------|---------------------|-----|----------------------|


                       2/8   6/8
         |--3--|                   |--3--|
  E  E E s  s  s  E E   E E    E E s  s  s  E E E   h.
|---------------------|-----|---------------------|-------||
|---------------------|-----|---------------------|-------||
|---------------------|-----|---------------------|-------||
|---12-----------10---|-9---|-12-----------10---9-|-------||
|-0----0-0h10h12----0-|---0-|----0-0h10h12----0---|-0-----||
|---------------------|-----|---------------------|-------||


   interlude
    gtr iii
     pm------------------------------------------
     E  E   E   E E   E     E  E   E   E E   E
||-----------------------|----------------------|
||o----------------------|----------------------|
||-----------------------|----------------------|
||--14----(14)-17---(17)-|-14----(14)-19---(19)-|
||o-----0---0-----0---0--|-----0---0-----0---0--|
||-----------------------|----------------------|
||-riff A
|   gtr ii
|   +h.                    +h.
||-----------------------|----------------------|
||o----------------------|----------------------|
||-----------------------|----------------------|
||-----------------------|----------------------|
||o-(0)------------------|-(0)------------------|
||-----------------------|----------------------|


                                     1.
                        3/8          3/4
 ---------------------------------------------------|
   E  E   E   E E   E     E  E   E     E  E  E E  E E
|----------------------|------------|-------------------||
|----------------------|------------|------------------o||
|----------------------|------------|-------------------||
|-12----(12)-14---(14)-|-10----(10)-|-12----10---12-----||
|-----0---0-----0---0--|-----0---0--|-----0----0----0--o||
|----------------------|------------|-------------------||
|                                            end riff a-|
| +h.                    +q.          +h.
|----------------------|------------|-------------------||
|----------------------|------------|------------------o||
|----------------------|------------|-------------------||
|----------------------|------------|-------------------||
|-(0)------------------|-(0)--------|-(0)--------------o||
|----------------------|------------|-------------------||


  2.
                  6/8
   pm-----------------------------------
   E E  E E  E E    E E   E   E E   E
|----------------|---------------------|
|----------------|---------------------|
|----------------|---------------------|
|-12---10---12---|-14---(14)-17---(17)-|
|----0----0----0-|----0---0-----0---0--|
|----------------|---------------------|


                                             3/8
 --------------------------------------------------|
   E E   E   E E   E     E E   E   E E   E     E E   E
|---------------------|---------------------|-----------|
|---------------------|---------------------|-----------|
|---------------------|---------------------|-----------|
|-14---(14)-19---(19)-|-12---(12)-14---(14)-|-10---(10)-|
|----0---0-----0---0--|----0---0-----0---0--|----0---0--|
|---------------------|---------------------|-----------|


 3/4              6/8
   pm---------------------------------------------------------
   E E  E E  E E    E E   E   E E   E     E E   E   E E   E
|----------------|---------------------|---------------------|
|----------------|---------------------|---------------------|
|----------------|---------------------|---------------------|
|-12---10---12---|-14---(14)-17---(17)-|-14---(14)-19---(19)-|
|----0----0----0-|----0---0-----0---0--|----0---0-----0---0--|
|----------------|---------------------|---------------------|


                       3/8         3/4
 ------------------------------------------------|
   E E   E   E E   E     E E   E     E E  E E  E E
|---------------------|-----------|----------------|
|---------------------|-----------|----------------|
|---------------------|-----------|----------------|
|-12---(12)-14---(14)-|-10---(10)-|-12---10---12---|
|----0---0-----0---0--|----0---0--|----0----0----0-|
|---------------------|-----------|----------------|


   6/8
      pm-------------------------------------------------------------------------
      E  E   E    E  E   E      E  E   E    E  E   E      E  E   E    E  E   E
||--------------------------|-------------------------|---------------------
||o-------------------------|-------------------------|---------------------
||--------------------------|-------------------------|---------------------
||-14---(14)-17----(17)---14----(14)--19----(19)---12----(12)--14----(14)---
||--0---0------0---0--------0---0-------0---0--------0---0-------0---0------
||--------------------------|-------------------------|---------------------
|
|   gtr iv
|     q      E    q      E      q      E    q      E      q      E    q      E
||--------------------------|-------------------------|---------------------
||o-------------------------|-------------------------|---------------------
||--------------------------|-------------------------|---------------------
||--/14\--------/17\--------|-/14\--------/19\--------|-/12\--------/14\----
||o-------------------------|-------------------------|---------------------
||--------------------------|-------------------------|---------------------


             1.,2.,3.                  4.
 3/8         3/4
 ---------------------------------------------------------|
    E   E E     E  E   E  E   E  E       E  E  E   E  E   E
|-----------|-----------------------||-----------------------||
|-----------|----------------------o||-----------------------||
|-----------|-----------------------||-----------------------||
|------12---|--12-----10-----12-----||--12----10-----12------||
|---0-----0-|------0------0------0-o||------0------0------0--||
|-----------|-----------------------||-----------------------||
|
|                                              \1/
|   q     e     q      q      q          q     q.    +e
|-----------|-----------------------||-----------------------||
|-----------|----------------------o||-----------------------||
|-----------|-----------------------||---------0-----(0)\----||
|-/10\------|-/12\---/10\---/12\----||-/10\------------------||
|-----------|----------------------o||-----------------------||
|-----------|-----------------------||-----------------------||


 bridge
riff A x4


 6/8                             2/4         6/8
   pm---------------------------------------------------------------------|
   E E E  E E E    E E E  E E E    E E  E E    E E E  E E E    E E E  E E E
|---------------|---------------|-----------|---------------|---------------
|---------------|---------------|-----------|---------------|---------------
|---------------|---------------|-----------|---------------|---------------
|-14-----17-----|-14-----17-----|-14---14---|-14-----17-----|-14-----17-----
|----0-0----0-0-|----0-0----0-0-|----0----0-|----0-0----0-0-|----0-0----0-0-
|---------------|---------------|-----------|---------------|---------------


 4/4                         6/8
   pm----------------------------------------
           |--3--|
   E E  E  s  s  s  E E E E    E E E  E E E
|---------------------------|---------------|
|---------------------------|---------------|
|---------------------------|---------------|
|-14---14----------10---9---|-14-----14-----|
|----0-----0h10h12----0---0-|----0-0----0-0-|
|---------------------------|---------------|


                 2/4         6/8
 -----------------------------------------|
   E E E  E E E    E E  E E    E E E  E E E
|---------------|-----------|----------------|
|---------------|-----------|----------------|
|---------------|-----------|----------------|
|-14-----14-----|-14---14---|-14-----14------|
|----0-0----0-0-|----0----0-|----0-0----0-0--|
|---------------|-----------|----------------|


                                                      verse 4
                 2/4         6/8          3/8         6/8
   pm--------------------------------------------|
   E E E  E E E    E E  E E   E  q  E q     E  E E     q.    E E E
|---------------|-----------|------------|---------||--------------|
|---------------|-----------|------------|---------||o-------------|
|---------------|-----------|------------|---------||--2-----------|
|-14-----14-----|-14---14---|---10----5--|----12---||--2----14-----|
|----0-0----0-0-|----0----0-|-8-----3----|-10----0-||o-0-------0-0-|
|---------------|-----------|------------|---------||--------------|


                 7/8                6/8           3/8
   E E E  E E E    E E E  E E  E E   E  q   E q     E  E E
|---------------|------------------|-------------|----------||
|---------------|------------------|-------------|---------o||
|---------------|------------------|-------------|----------||
|-17-----14-----|-17-----14---14---|---10\----5--|----12----||
|----0-0----0-0-|----0-0----0----0-|-8------3----|-10----0-o||
|---------------|------------------|-------------|----------||


 7/8                    6/8
  q  e s s s s s s s s   s s s s s s s s s s s s    e e  e e e e
|----------------------|-------------------------|---------------|
|----------------------|-------------------------|---------------|
|----------------------|-------------------------|---------------|
|------7-7---7-7-------|-8s7-8s7-----8s7-8s7-----|-10-8-10-5-3-5-|
|-0----5-5---5-5-------|-6s5-6s5-----6s5-6s5-----|--8-8--8-3-3-3-|
|-0--0-----0-----0-0-0-|---------0-0---------0-0-|--8-8--8-3-3-3-|


 3/8           5/8       9/8                   5/8
   E  E  A  E   q.   q    E E E E E E E E E     q  E q
|-------------|---------|-------------------||----------|
|-------------|---------|-------------------||o---------|
|-------------|---------|-------------------||----------|
|-12-10-------|---------|---0-------------5-||-------5--|
|-10-10-------|-0----5--|-0-------0-----3-3-||o-0--0----|
|-10-10-10s12-|-0-------|-----0-5---0-3-----||----------|


                                        verse 5
  1.,2.                  3.                         1.,2.,3.
 9/8                    6/8             5/8         7/8
                                         pm----------------------|
  E E E E E E E E  E     E E E E E E     E E E E E   E E E E E E E
|---------------------||-------------||------------|----------------||
|--------------------o||-------------||o-----------|---------------o||
|-----------------/5--||-------------||------------|----------------||
|---0-------------/5--||---0---------||------------|----------------||
|-0-------0-----3-/3-o||-0-------0---||o-3---2-----|-3---2---5-----o||
|-----0-5---0-3-------||-----0-5---0-||--3-0-2-0-0-|-3-0-2-0-5-0-0--||


  4.                                     1.,2.,3.
 7/8                   5/8               7/8
  pm------|
  e e e e e s s s s     e s s e s s s s   e s s e s s e s s s s
|-------------------||------------------|------------------------||
|-------------------||o-----------------|-----------------------o||
|-------------------||------------------|------------------------||
|-------------------||------------------|------------------------||
|-3---2---5---------||o-3-x-x-2-x-x-----|-3-x-x-2-x-x-5-x-x-x-x-o||
|-3-0-2-0-5-2-0-2-0-||--3-x-x-2-x-x-0-0-|-3-x-x-2-x-x-5-x-x-x-x--||


                               outro
  4.
                               4/4
                                pm------------------------|
                |-3-| |-3-|       |-3-|     |-3-|   |-3-|
  e s s e s s e s s s s s s     e s s s e e s s s e s s s e  8x
|---------------------------||-------------------------------||
|---------------------------||o-----------------------------o||
|---------------------------||-------------------------------||
|---------------------------||-------------------------------||
|-3-x-x-2-x-x-5-0h3h5-0h3h5-||o---------5---------6-------3-o||
|-3-x-x-2-x-x-5-0h3h5-0h3h5-||--0-0h3h5---0-0h3h6---0h3h5----||
Comments