Tool - Right In Two Chords & Tabs

 

Right In Two Chords & Tabs

Tool Chords & Tabs

Version: 1 Type: Tab

Right In Two Tab

   
-------------------------------------------------------------------------------
			     RIGHT IN TWO - Tool
-------------------------------------------------------------------------------
Tabbed by: slyo
Email: sly at davidhurst dot net

Tuning: Drop D (D A D G B e)

[Intro]
   Gtr I: Clean + Delay (Let bottom string ring)
e||-----------------------------------------------------------|--------------------------------------------------------------||
B||-----------------------------------------------------------|--------------------------------------------------------------||
G||-----------------------------------------------------------|--------------------------------------------------------------||
D||----------7/-----------10----------------7--------------12-|----------7/-----------10----------------7--------------12/13-||
A||------5-------------8-----------------5--------------------|------5-------------8-----------------5-----------------------||
D||-0-------------8----------------5------------------10------|-0-------------8----------------5------------------10---------||

[Intro]
   Gtr I: Clean + Delay (Let bottom string ring)
e||-----------------------------------------------------------|--------------------------------------------------------------||
B||o----------------------------------------------------------|-------------------------------------------------------------o||
G||-----------------------------------------------------------|--------------------------------------------------------------||
D||----------7/-----------10----------------7--------------12-|----------7/-----------10----------------7--------------12/13-||
A||o-----5-------------8-----------------5--------------------|------5-------------8-----------------5----------------------o||
D||-0-------------8----------------5------------------10------|-0-------------8----------------5------------------10---------||
 |
 | Gtr II: Clean + Vibrato Effect
e||-----------------------------------------------------------|--------------------------------------------------------------||
B||o----------------------------------------------------------|-------------------------------------------------------------o||
G||-----------------------------------------------------------|-------------------------------<7>b/----b\\-------------------||
D||-----------------------------------------------------------|---------------------------------------------------<12>b/-----||
A||o<5>-------------------------------------------------------|-<5>---------------------------------------------------------o||
D||-<5>-------------------------------------------------------|-<5>----------------------------------------------------------||

[Intro]
   Gtr I: Clean + Delay
e||-----------------------------------------------------------|--------------------------------------------------------------||
B||o----------------------------------------------------------|-------------------------------------------------------------o||
G||-----------------------------------------------------------|--------------------------------------------------------------|| 4x
D||----------7------------10----------------7--------------12-|----------7------------10----------------7--------------12/13-||
A||o-----5-------------8-----------------5--------------------|------5-------------8-----------------5----------------------o||
D||-0-------------8----------------5------------------10------|-0-------------8----------------5------------------10---------||
 |
 | Gtr II: Clean + Vibrato Effect
e||-----------------------------------------------------------|--------------------------------------------------------------||
B||o----------------------------------------------------------|-------------------------------------------------------------o||
G||-------------------------------<7>b/----b\\----------------|--------------------------------<7>b/---b\\-------------------|| 4x
D||---------------------------------------------------<12>b/--|---------------------------------------------------<12>b/-----||
A||o<5>-------------------------------------------------------|-<5>---------------------------------------------------------o||
D||-<5>-------------------------------------------------------|-<5>----------------------------------------------------------||

[Riff 1]
   Gtr I: Clean + Delay
e||------------------------------------------------------------||
B||o----------------------------------------------------------o||
G||------------------------------------------------------------||
D||---------12----------------12-------------------12----10----|| 4x
A||o-------------------------------------------------------10-o||
D||-0----12---------0-------12---------0--------12-------------||
 | pm________________________________________________________|
 |
 | Gtr II: Clean + Vibrato Effect
e||-----------------------------------------------------------|--------------------------------------------------------------||
B||o----------------------------------------------------------|-------------------------------------------------------------o||
G||-------------------------------<7>b/---b\\-----------------|--------------------------------<7>b/---b\\-------------------|| 4x
D||---------------------------------------------------<12>b/--|---------------------------------------------------<12>b/-----|| 
A||o<5>-------------------------------------------------------|-<5>---------------------------------------------------------o||
D||-<5>-------------------------------------------------------|-<5>----------------------------------------------------------||

[Riff 2]
   Gtr I: Clean + Reverb? (Let bottom string ring)
e||--------------------------------------------------------------|-----------------------------------------------------------------|
B||o-------------------------------------------------------------|----------------------------------------------------------------o|
G||------------------------<7>-----------------------------------|------------------------<7>--------------------------------------|
D||----------------------------------------<7>----------------12-|----------------------------------------<7>----------------12/13-|
A||o-----<7>-----------------------------------------------------|------<7>-------------------------------------------------------o|
D||-0-----------------8----------------5-----------------10------|-0-----------------8----------------5-----------------10---------|

   Gtr I
e|--------------------------------------------------------------|-----------------------------------------------------------------|
B|--------------------------------------------------------------|-----------------------------------------------------------------|
G|------------------------<7>-----------------------------------|-----------------------------------------------------------------|
D|----------------------------------------<7>----------------12-|-----------------------------------------------------------12/13-|
A|------<7>-----------------------------------------------------|--------0-------1------------------------<5>---------------------|
D|-0-----------------8----------------5-----------------10------|-0-----------------------3---------5-----------------10----------|

   Gtr I
e|-----------------------------------------------------------------|-----------------------------------------------------------------||
B|-----------------------------------------------------------------|-----------------------------------------------------------------||
G|------------------------<7>--------------------------------------|-----------------------------------------------------------------||
D|----------------------------------------<7>----------------12/13-|-----------------------------------------------------------------||
A|------<7>--------------------------------------------------------|--------0-------1-------------------------3----------------5/6---||
D|-0-----------------8----------------5-----------------10---------|-0-----------------------3---------5-----------------------------||

[ Tab from: http://www.guitartabs.cc/tabs/t/tool/right_in_two_tab.html ]
[Riff 1]
   Gtr I: Clean + Delay
e||------------------------------------------------------------|
B||o----------------------------------------------------------o|
G||------------------------------------------------------------|
D||---------12----------------12-------------------12----10----| 4x
A||o-------------------------------------------------------10-o|
D||-0----12---------0-------12---------0--------12-------------|

   Gtr I: Clean + Delay
e|------------------------------------------------------------|
B|o----------------------------------------------------------o|
G|------------------------------------------------------------|
D|---------12----------------12-------------------12----10----| 3x
A|o-------------------------------------------------------10-o|
D|-0----12---------0-------12---------0--------12-------------|

   Gtr I: Clean + Delay
e|------------------------------------------------------------||
B|------------------------------------------------------------||
G|------------------------------------------------------------||
D|---------12----------------12-------------------12----10----||
A|--------------------------------------------------------10--||
D|-0----12---------0-------12---------0--------12-------------||
 |
 | Gtr II: Clean + Delay
e|------------------------------------------------------------------||
B|------------------------------------------------------------------||
G|------10-----------------10-------------------10------------------||
D|---------12----------------12-------10--12-10---12-10-12-10-------||
A|------------------------------------------------------------12-10-||
D|------------------------------------------------------------------||
  pm_______________________________________________________________|

[Riff 3]
  Gtr I: Clean + Delay                                                                        1.                2.
e||------------------------------------------|----------------------------------------------|----------------||---------------||
B||o-----------------------------------------|----------------------------------------------|---------------o||---------------||
G||------------------------------------------|----------------------------------------------|----------------||---------------||
D||------------------------------------------|----------7/-----------10----------------7----|----------12/13-||-7-------------||
A||o----0h1---1----3----------3-----7--5-----|------5-------------8-----------------5-------|---------------o||-5-------------||
D||-0---------------------5------------------|-0-------------8----------------5-------------|-----10---------||-5-------------||


[Riff 4]
   Gtr I: Distortion
e||-----------------------------||
B||o---------------------------o||
G||-----------------------------|| 4x
D||-0----7-/------10--5/7--7----||
A||o0----5-/------8---3/5--5---o||
D||-0-------------8---3/5--5----||

At the end pull the strings up then release.



[Solo]
   Gtr I: Clean + Delay
e||-----------------------------------------------||
B||o---------------------------------------------o||
G||-----------------------------------------------||
D||-----------------------------------------------||
A||o5----3-5-3-5-------3-5-3-5------3-5-3-5---3--o||
D||-----------------------------------------------||
    pm_________________________________________|

Occasionally this is played:
   Gtr I: Distortion
e||-----|
B||-----|
G||-----|
D||---0-|
A||-3---|
D||-----|
   Gtr I: Clean + Delay
e||-----------------------------------------------||
B||o---------------------------------------------o||
G||-----------------------------------------------||
D||-----------------------------------------------||
A||o5----3-5-3-5-------3-5-3-5------3-5-3-5---3--o||
D||-----------------------------------------------||
 |  pm_________________________________________|
 |  Gtr II: Distortion
e||------------|-----------------------------------------||
B||o-----10---o|-----------------------------------------||
G||-10h12--12--|-10-12-10-----10-12-10---10-12-10-12~-10-||
D||------------|-----------------------------------------||
A||o----------o|-----------------------------------------||
D||------------|-----------------------------------------||

   Gtr I: Distortion
e||---------------------------------------------------||
B||o-------------------------------------------------o||
G||---------------------------------------------------||
D||---------------------------------------------------||
A||o------3---3---------3---3----------3---3------3~-o||
D||-0-------0---0---------0---0----------0---0--------||

   Gtr I
e||----------------------------------------------------||
B||o--------------------------------------------------o||
G||----------------------------------------------------||
D||----------------------------------------------------||
A||o----------3--------------3--------------3------5h6o||
D||-0-----3-5---0-------3--5---0--------3-5---0--------||

Rest

(Some strange effect)

   Gtr I
e||------------------------------------------------------------------------------------||
B||o----------------------------------------------------------------------------------o||
G||------------------------------------------------------------------------------------||
D||------------------------------------------------------------------------------------||
A||o--------------------------------------------------------------------------------3~o||
D||-0-----10-10-0-0-10-10-0-------10-10-0-0-10-10-0----0-----10-10-0-0-10-10-0---------||
       pm_______________|      pm_______________|         pm_______________|
       tp_______________|

   Gtr I
e||---------------------------------------------------------------------||
B||o-------------------------------------------------------------------o||
G||---------------------------------------------------------------------||
D||---------------------------------------------------------------------||
A||o------3-3-5-5-3-3---------3-3-5-5-3-3----------3-3-5-5-3-3-------3-o||
D||-0-----------------0-------------------0--------------------0--------||
        tp__________|       tp__________|        tp__________|

   Gtr I: Weird Effect
e||-----|-----------------||
B||-----|-----------------||
G||-----|-----------------||
D||-----|-----3-----------||
A||-3-5-|-3-5---5-3-5-6-5-||
D||-----|-----------------||
    | over and over

   Gtr I: Distortion
e||---------------------------||
B||o-------------------------o||
G||---------------------------||
D||-10-12---13---10-12--15-12-|| 8x
A||o10-12---13---10-12--15-12o||
D||-10-12---13---10-12--15-12-||

   Gtr I
e||---------------------------------------------------||
B||o-------------------------------------------------o||
G||---------------------------------------------------||
D||---------------------------------------------------|| 2x
A||o-------3---3---------3---3----------3---3------3~o||
D||-0-------0---0---------0---0----------0---0--------||

   Gtr I
e||---------------------------------------------------|---------------------------------------------------||
B||---------------------------------------------------|---------------------------------------------------||
G||---------------------------------------------------|---------------------------------------------------||
D||---------------------------------------------------|---------------------------------------------------||
A||--------3---3---------3---3----------3---3------3~-|------------3-------------3----------3---3------3~-||
D||-0-------0---0---------0---0----------0---0--------|-0------3/5----------3/5--------------0---0--------||

[Riff 3]
  Gtr I: Distortion
e||------------------------------------------|----------------------------------------------|--------||
B||o-----------------------------------------|----------------------------------------------|--------||
G||------------------------------------------|----------------------------------------------|--------||
D||------------------------------------------|----------7/-----------10----------------7----|-7------||
A||o-----------------------------------------|------5-------------8-----------------5-------|-5------||
D||-0----7/8--8---10-8----5-----12--14--12---|-0-------------8----------------5-------------|-5------||

[Riff 4]
   Gtr I: Distortion
e||-----------------------------||
B||o---------------------------o||
G||-----------------------------|| 4x
D||-0----7-/------10--5/7--7----||
A||o0----5-/------8---3/5--5---o||
D||-0-------------8---3/5--5----||

Play [Intro] one time then [Riff 1] a few times.


-------------------------------------
pm - palm mute
~  - vibrato
/  - slide up
\  - slide down
b  - bend
tp - tremolo picking
 - natural harmonic