Tool - Reflection Chords & Tabs

 

Reflection Chords & Tabs

Tool Chords & Tabs

Version: 2 Type: Tab 0 ratings
1 star 2 stars 3 stars 4 stars 5 stars
comments

Reflection Tab

   
Tool
Reflection ~ Lateralus
DROP D (DADGBE)

I didn't like any of the Reflection tabs, so I made my own.  I don't
claim this tab to be perfect, by any means.  I do claim that this was
not a quickly-made tab.  I have enough working knowledge of guitar
to make something that comes pretty close and sounds like the
original.  I also believe that this tab is far better than the other
Reflection tabs here.


Intro:  Synth.  Chords are: B5 E5 B5 D5 C5


Violin-ish Part tabbed for guitar.
|---------------------------------------------------------|
|---------------------------------------------------------|
|-9-9b11---9-7-9b12r11-------7-6h7-7vvv-6\4h6p4---9-9b11--|
|------------------------7-9-------------------7----------|
|---------------------------------------------------------|
|---------------------------------------------------------|
 (1:35)

-------------------------10-9-7---------7-9-10---|
--------------------------------10-7-10----------|
-9-7-9b12r11-11vvv---11p9------------------------|
-------------------------------------------------|
-------------------------------------------------|
-------------------------------------------------|
                          (My best guess)

------------------------------------------------------|
------------------------------------------------------|
---------7vvv-6h7-------------------------------------|
--7-9-11----------11-9h11p9-7-9---9b12r11b12r11vvvvvv-|
------------------------------------------------------|
------------------------------------------------------|

Enter Guitar

|--------------------------------------------------------|
|--------------------------------------------------------|
|--------------------------------------------------------|
|--------------------------------------------------------|
|-2-2-0-0h2-2---2-2-0-0h2-2---2-2-0-0h2-2---2-2-0-0h3-2--|
|--------------------------------------------------------|
 (2:17)
P.M.
^^^^^^^^^^^^^^^^^^^^^^^^^^^^^^^^^^^^^^^^^^^^^^^^^^

|----------------------------------------------------|
|----------------------------------------------------|
|----------------------------------------------------|
|-------------------2----------------------0---------|
|-2-2-0-0h2-2-0-2h3----3-2-2-0-0h2-2-0-2h3---3-2-2-0-|
|----------------------------------------------------|
P.M.^^^^^^^^^^^^^^^^^^^^^^^^^^^^^^^^^^^^^^^^^^^^^^^

-----------------------------------|
-----------------------------------|
----------------------------------*|
------------2---------------------*|
0h2-2-0-2h3---3-2-2-0-0h3-3-0-0-3--|
-----------------------------------|
^^^^^^^^^^^^^^^^^^^^^^^^^^^^^^^^(x5)

|--------------------------------------------------------|
|--------------------------------------------------------|
|--------------------------------------------------------|
|9------------------/10\9----/10\9-----/10\9------/10\9--|
|9------------------/10\9----/10\9-----/10\9------/10\9--|
|9------------------/10\9----/10\9-----/10\9------/10\9--|
Feedback^^^^^^^^^^^^^^^^^^^^^^^^^^^^^^^^^^^^^^^^^^^

|---------------------------------|
|---------------------------------|
|--------4---------------------4--|
|--------4---------------------4--|
|--------2---------------------2--|
|---------------------------------|
  (3:53) Trem pick near bridge

|----------------------------------------|
|----------------------------------------|
|-------------------------2-----2----0---|
|-----------4---4-----4-----4------------|
|--------2----2---0-2---3-----3--------3-|
|----------------------------------------|
P.M. and Delay ^^^^^^^^^^^^^^^^^^^^^^^^^^

|-----------------------------------|
|-----------------------------------|
|---------------------2-----2-0----*|
|---5---4-5-4-----4-----4----------*|
|-2---2-------0-2---3-----3-----3---|
|-----------------------------------|
P.M. and Delay ^^^^^^^^^^^^^^^^^^(x15)

|---------------------|
|---------------------|
|--------------------*|
|--------------------*|
|------2-2-0-0h2-2----|
|---------------------|
(5:08)P.M.^^^^^^^^(x12)

|----------------------|-------------------|
|----------------------|-------------------|
|----------------------|-------------------|
|----------------------|-9/10\9/10\9/10\9--|
|----------------------|-9/10\9/10\9/10\9--|
|----------------------|-9/10\9/10\9/10\9--|
 (5:58) Feedback in D    Feedback ^^^^^^^

|----------------------------------------|
|----------------------------------------|
|-------------------------2-----2----0---|
|-----------4---4-----4-----4------------|
|--------2----2---0-2---3-----3--------3-|
|----------------------------------------|
Section /W Delay


|-----------------------------------|
|-----------------------------------|
|---------------------2-----2-0----*|
|---5---4-5-4-----4-----4----------*|
|-2---2-------0-2---3-----3-----3---|
|-----------------------------------|
/W Delay                        (x15)

[ Tab from: http://www.guitartabs.cc/tabs/t/tool/reflection_tab_ver_2.html ]
|------------------------------------------|
|------------------------------------------|
|------------------------------------------|
|--9---9-0----10-9---9-0---10-9---9-0------|
|--9---9-0----10-9---9-0---10-9---9-0------|
|--9---9-0----10-9---9-0---10-9---9-0------|
(7:04)

----------------------------------------------------------------|
----------------------------------------------------------------|
----------------------------------------------------------------|
-10-9---9-0---10-9---9-0---10-9---9-0---10-9---9-0---10-9---9-0-|
-10-9---9-0---10-9---9-0---10-9---9-0---10-9---9-0---10-9---9-0-|
-10-9---9-0---10-9---9-0---10-9---9-0---10-9---9-0---10-9---9-0-|

|-----------------------------|
|-----------------------------|
|-----------------------------|
|-7h9vvvv\\\\---7h9vvvv\\\\---|
|-----------------------------|
|-----------------------------|
 (7:35)

-------------------------------------------------|
-------------------------------------------------|
-------------------------------------------------|
-7h10vvvv-10h12vvvv\7/10-7h9vvvv\\\\-------------|
-------------------------------------------------|
-------------------------------------------------|

---------------------------|
---------------------------|
---------------------------|
-9\7/10p9h10p9h10p9h12\7/9-|
---------------------------|
---------------------------|

|--------------------------------------------------|
|--------------------------------------------------|
|---11-11-----11-11------9--------11-11---11-11----|
|-9---------9-------9-12---12---9-------9-------9--|
|--------------------------------------------------|
|--------------------------------------------------|
/W all sorts of wah

-----------------------------------------------------------------|
-----------------------------------------------------------------|
----9--------11-11---11-11------9--------11-11---11-11------9----|
-12---12---9-------9-------9-12---12---9-------9-------9-12---12-|
-----------------------------------------------------------------|
-----------------------------------------------------------------|

|--------------------------------------------------------|
|--------------------------------------------------------|
|-/9vvv-11vvv-11h12p11vvvv---/9vvv-11vvv-11h12p11vv\\\\\-|
|--------------------------------------------------------|
|--------------------------------------------------------|
|--------------------------------------------------------|
 (8:04)

-----------------------------------------------|
-----------------------------------------------|
-9vvv-11vvv----11h12p11vvv---9vvv-11vv\--------|
-----------------------------------------------|
-----------------------------------------------|
-----------------------------------------------|

|--------------|-------------------------------|
|--------------|-------------------------------|
|------0-------|-----0-------------0---2p0----*|
|----4---4---4-|---4---4---2-----4---4-----0--*|
|--2-------2---|-2-------2-----2---------------|
|--------------|-------------------------------|
 (8:25)                                   (x9)

|----------------------------------|
|----------------/8---8---5--5-5-5-|
|-----0----------/7---7---4--4-4-4-|
|---4---4---4----/5---5---2--2-2-2-|
|-2-------2------/5---5---2--2-2-2-|
|----------------/5---5---2--2-2-2-|

|------------------------------------|
|------------------------------------|
|------------------------------------|
|--9--9-0---9--9-0---9--9-0---9--9-0-|
|--9--9-0---9--9-0---9--9-0---9--9-0-|
|--9--9-0---9--9-0---9--9-0---9--9-0-|
(9:20)

|----------------------------------------|
|----------------------------------------|
|-----------9b11r9r7-----------7b9r7r5--*|
|--9--9-0-------------9--9-0------------*|
|--9--9-0-------------9--9-0-------------|
|--9--9-0-------------9--9-0-------------|
Let D5 Chords Ring                   (x2)

|-------------------------------------|
|---------------10----------------10--|
|--9b11r9b11/12b14---9b11r9b11/12b14\-|
|-------------------------------------|
|-------------------------------------|
|-------------------------------------|
/W Delay

-------------------------------------------------------------|
------------------10----------------10--------------------10-|
-9\7-9b11r9b11/12b14---9b11r9b11/12b14\9\7/9-9b11r9b11/12b14-|
-------------------------------------------------------------|
-------------------------------------------------------------|
-------------------------------------------------------------|

-------------------------------------------------------|
--------------10----------------------10---------------|
-9b11r9b11/12b14\9\7/9---9b11r9b11/12b14---9b11r9b11r9-|
-------------------------------------------------------|
-------------------------------------------------------|
-------------------------------------------------------|

|-----------------------------|
|-----------------------------|
|-----------------------------|
|--9--9-0---5---9--9----0---5-|
|--9--9-0---5---9--9----0---5-|
|--9--9-0---5---9--9----0---5-|

|----------------|
|----------------|
|----------------|
|---7/10\9\0/5---|
|---7/10\9\0/5---|
|---7/10\9\0/5---|
(Repeat until End)

Any questions and comments email: MAJIKALMUFFIN@YAHOO.COM
Comments