Tool - Pushit Live Chords & Tabs

 

Pushit Live Chords & Tabs

Tool Chords & Tabs

Version: 2 Type: Tab 0 ratings
1 star 2 stars 3 stars 4 stars 5 stars
comments

Pushit Live Tab

Song: Pu*** (live)
Album: Salival
Band: Tool
Date: Aug 5th, 2002
Last Update: Nov 15th, 2003
By: Kyle Jasinski (kjasinski86@yahoo.com)

PLEASE ENJOY!

Tired of half-way done tabs so going to make it as detailed and correct as
possible. I will try and point all when he adds delay, changes delay, uses wah,
and such. Some parts will be unexplainable, you will have to listen to the recording.

Tuning is drop D.

Key: 
 pm   palm mute
 ^    bend note
 *    artificial harmonic
 (nh) natural harmonic (touch finger to string without applying pressure above
depicted fret, then pick)
 h    Hammer On
 p    Pull Off
 ~    Hold out note (although you should hold just about all notes, this is
reminding you)
 ()   "ghost note" (unless otherwise noted). I use this to depict a note that you
might not have heard or may be hard to           hear. A very subtle note.

::TO SET YOUR DELAY CORRECTLY FOR ANY TOOL SONG::
(With a proper delay setting your song can sound many times better)

Play the song up to a point where you can hear the delay effect very well,
in "Pu*** (live)'s" case a good point is 8:21, where the drums have finished and
it is playing clean. Adam tends to set the delay to the beats in the song, which
seems right anwyays. 

Also, many parts of this song can be played on several different areas of the guitar.
I only show you where I play them, if you find you like it played somewhere else on
the guitar, then use that.
 
And now on to the tab...

(The timing may be off because I am using winamp)

0:28 repeating open D string comes in permanently (no echo delay) (no volume
adjustments)

Keep tones and distortion low for solo and verse

0:44 (Hold notes out)
                                             (1:00)
e|--------------------------------------------------------------------------|
b|-----------------------------------------------------------9--------------|
g|---2----2h3-3----3/5-5-----3p2p0h3---3p2-----5/7-7-----9h10-10-9h10p9-----|
d|--------------------------------------------------------------------------|
a|--------------------------------------------------------------------------|
D|--------------------------------------------------------------------------|

  (1:06)                                              (stop delay "repeat")
e|---------------------------------------------------------------------|
b|------9--------------------------------------------------------------|
g|--9h10-10-9------7\5-5/7-----2h3-5-3p2p0h3p2----2p0~-----------------|
d|---------------------------------------------------------------------|
a|---------------------------------------------------------------------|
D|---------------------------------------------------------------------|

During the silence here, reach down and set your DD-5 (or other) delay pedal to
normal delay functions (with it matching adam's delay hopefully). Keep the pedal
off, there is no delay in the verse.

Verse 1

1:20 Keep volume and distortion low, there is no delay. HOLD OUT NOTES

                                 5x
e|---------------------------------|
b|---------------------------------|
g|----2------2------2-------2------|
d|-0------3------5-------------5---|
a|---------------------3-----------|
D|---------------------------------|

 (1:53)                             x1
e|------------------------------------------|
b|------------------------------------------|
g|----2-----2------2-----2---------2--------|
d|-0-----3------5-----5-----5---------5-----|
a|-----------------------------3---------3--|
D|------------------------------------------|

 (1:59)                                                       x8
e|--------------------------------------------------------------|
b|--------------------------------------------------------------|
g|----2-----2---------2-----2---------2-----2---------2---------|
d|-0-----0-----0---3-----3-----3---5-----5-----5---------5------|
a|------------------------------------------------3---------3---|
D|--------------------------------------------------------------|

Chorus 1

2:54 Turn up volume for a little more distortion. 

                                         x3
e|-----------------------------------------|
b|-----------------------------------------|
g|-----------------------------------------|
d|--7--7-7-\-3--3-3-/-5--5-5-p-0--0-0-0----|
a|--7--7-7-\-3--3-3-/-5--5-5-p-0--0-0-0----|
D|--7--7-7-\-3--3-3-/-5--5-5-p-0--0-0-0----|

  (3:14)		             
e|---------------------------------------------------------------------|
b|-----------------------------------------3----3-------3----3---------|
g|-------------------------------------2------2----2-------2----2------|
d|--7--7-7-\-3--3-3-/-5--5-5-p-0---------------------------------------|
a|--7--7-7-\-3--3-3-/-5--5-5-p-0-(hold----------turn volume------------|
D|--7--7-7-\-3--3-3-/-5--5-5-p-0--chord)--------down for verse---------|

Verse 2

 (3:26)                                                       x2
e|--------------------------------------------------------------|
b|--------------------------------------------------------------|
g|----2-----2---------2-----2---------2-----2---------2---------|
d|-0-----0-----0---3-----3-----3---5-----5-----5---------5------|
a|------------------------------------------------3---------3---|
D|--------------------------------------------------------------|

 (3:39)                                                     x1
e|------------------------------------------------------------|
b|------------------------------------------------------------|
g|----2-----2---------2-----2---------4-----4---------4-------|
d|-0-----0-----0---3-----3-----3---5-----5-----5---------5----|
a|------------------------------------------------3-----------|
D|------------------------------------------------------------|

 (3:45)                                              x1
e|-----------------------------------------------------|
b|-----------------------------------------------------|
g|----2-----2---------2-----2---------2-----2----------|
d|-0-----0-----0---3-----3-----3---5-----5-----5-------|
a|------------------------------------------------3~---|
D|-----------------------------------------------------|

 (3:53)                                                       x4
e|--------------------------------------------------------------|
b|--------------------------------------------------------------|
g|----2-----2---------2-----2---------2-----2---------2---------|
d|-0-----0-----0---3-----3-----3---5-----5-----5---------5------|
a|------------------------------------------------3---------3---|
D|--------------------------------------------------------------|

Chorus 2

4:19 Use delay if it doesnt sound bad to you. you can also hold down the hole
chord with the notes in (). Depends on what you want, really.

                                         x4
e|-----------------------------------------|
b|-(10)-----(6)------(8)-------------------|
g|-(9)------(5)------(7)-------------------|
d|--7--7-7-\-3--3-3-/-5--5-5-p-0--0-0-0----|
a|--7--7-7-\-3--3-3-/-5--5-5-p-0--0-0-0----|
D|--7--7-7-\-3--3-3-/-5--5-5-p-0--0-0-0----|

  (4:46)                                 x1
e|---------------------------------------------|
b|-(10)-----(6)------(8)-----------------------|
g|-(9)------(5)------(7)-----------------------|
d|--7--7-7-\-3--3-3-/-5--5-5-p-0---------------|
a|--7--7-7-\-3--3-3-/-5--5-5-p-0--(hold chord)-|
D|--7--7-7-\-3--3-3-/-5--5-5-p-0---------------|

Verse 3

(4:59) 
                                x1
e|--------------------------------|
b|--------------------------------|
g|----2------2------2-------------|
d|--------------------------------|
a|-----------------------3--2h3---|
D|-0------3------5----------------|

  (5:02)                                                       x5
e|---------------------------------------------------------------|
b|---------------------------------------------------------------|
g|----2-----2---------2-----2---------2-----2--------------------|
d|---------------------------------------------------------------|
a|------------------------------------------------3----2h3-------|
D|-0-----0-----0---3-----3-----3---5-----5-----5-----------------|

Chorus 3

(5:33) 
                                         x4
e|-----------------------------------------|
b|-(10)-----(6)------(8)-------------------|
g|-(9)------(5)------(7)-------------------|
d|--7--7-7-\-3--3-3-/-5--5-5-p-0--0-0-0----|
a|--7--7-7-\-3--3-3-/-5--5-5-p-0--0-0-0----|
D|--7--7-7-\-3--3-3-/-5--5-5-p-0--0-0-0----|

  (6:01)                                     x1
e|---------------------------------------------|
b|-(10)-----(6)------(8)-----------------------|
g|-(9)------(5)------(7)-----------------------|
d|--7--7-7-\-3--3-3-/-5--5-5-p-0---------------|
a|--7--7-7-\-3--3-3-/-5--5-5-p-0--(hold chord)-|
D|--7--7-7-\-3--3-3-/-5--5-5-p-0---------------|

Rest of song:

6:08: Turn up volume all the way. Theres no definite structure to the song, so
I'll just post times. By this time your either getting really into the song, or
your faded and getting really into the song :D.

 (6:08)				    8x
e|-----------------------------------------|
b|-----------------------------------------|
g|-----------------------------------------|
d|--7--7-7-\-3--3-3-/-5--5-5-p-0--0-0-0----|
a|--7--7-7-\-3--3-3-/-5--5-5-p-0--0-0-0----|
D|--7--7-7-\-3--3-3-/-5--5-5-p-0--0-0-0----|

  (6:33)                   6x
e|---------------------------|
b|---------------------------|
g|---------------------------|
d|---7-----5-----7-----10p9--|  Slightly bend notes on 7th and 5th frets
a|---0-0-0-0-0-0-0-0-0-0-----|
D|---------------------------|

          hold out      
e|--------|------|   
b|--------|------| 
g|--------|------| Continue to play and bend the first chord, ending on open D
d|---7^---|--0~--|  
a|---0----|--0~--|
D|---0----|--0~--|
    

(7:10) drums...


           Very low volume, little distortion. Play softly and play around with notes. 
[ Tab from: http://www.guitartabs.cc/tabs/t/tool/pushit_live_tab_ver_2.html ]
  (7:56)   <> labels a natural harmonic note   
e|----------------------------------------------------------------------|
b|----------------------------------------------------------------------|
g|----------------------------------------------------------------------|
d|--<12>---<12><12><12>-------------------------------------------------|
a|-----------------------------0-0-0-0---------0-0-0-0-0-0-0-0----------|
d|------------------------10p9---------5h7-5h7-----------------5h7-5h7--|
                         pm---------|         pm------------|

e|---------------------------------------|
b|---------------------------------------|
g|---------------------------------------|
d|---------------------------------------| x4
a|--0-0---0-0---0-0---0-0---0-0---0-0----|
d|------7-----7-----7-----7-----7-----7--|
  pm-------------------------------------|



When drums are about to get louder all of a sudden (~8:20)
If you remember to turn off distortion, raise volume, and keep delay on, you'll
sound beautiful :).

  (8:20)
e|------------------------------------------------------|
b|------------------------------------------------------|
g|----9~----9/10----9~----9/10----9~----9/10----9~\\\\--|
d|----7~----7/8-----7~----7/8-----7~----7/8-----7~\\\\\-|
a|------------------------------------------------------|
D|------------------------------------------------------|

Low volume, distortion, delay. 

  (8:35)
e|----------------------------------------------------------------------|
b|----------------------------------------------------------------------|
g|----------------------------------------------------------------------|
d|-----------------------------12---------------------------12----------|
a|--(10h12)---12--10--12--12h14--14p12h14--12--10--12--12h14--14p12h14--|
D|----------------------------------------------------------------------|

  (8:44)
e|-------------------------------------------|
b|-------------------------------------------|
g|-------------------------------------------|
d|-------------------12----------------------|
a|--12--10--12--12h14--14p12h14--12--10--12~-|
D|-------------------------------------------|

 (8:54) volume up more. "()" = natural harmonics
e|---------------------|
b|---------------------|
g|----(7)--------------|  Play with open A string while turning 
d|--(7)----------------|  up and down volume until (9:13)
a|---------------------|
D|---------------------|

 (9:13) 							          (9:23)
e|-------------------------------------------------------------------------------------------|
b|------------------------------------------------------10-----------------------------10----|
g|----(7)--15-14--14-12--12-11\9--11-9--9-------12~--------12---------------------9--12------|
d|--(7)-----------------------------------12---12~------------12-11-----------11-------------|
a|------------------------------------------------------------------12~-----12---------------|
D|-------------------------------------------------------------------------------------------|

  (9:31)
e|-------------------------------------------------------------------------|
b|-------------------------------------------------------------------------|
g|----(7)-------14----14--------14----14--------14----14---------14--------|
d|--(7)------12----12--------15----15--------17----17----17---------17-----|
a|----------------------------------------------------------15---------15--|
D|-------------------------------------------------------------------------|

  (9:39)
e|-------------------------------------------------------------|
b|-------------------------------------------------------------|
g|------14----14--------14----14--------14----14---------------|
d|---12----12--------15----15--------17----17----17------------|
a|--------------------------------------------------15~~-\\\---|
D|-------------------------------------------------------------|

HOLD OUT CHORDS. Delay if you like.

  (9:51)                   (9:54)                      (10:00) 
e|--------------------------------------------------------------------------------------------|
b|--------------------------------------------------------10------8---8^-8-----8^--8---8^--8^-|
g|----------------------------2--2-2--2-2-2-2--2--2-2--2--9-------7---7^-7-----7^--7---7^--7^-|
d|----------------------------2--2-2--2-2-2-2--2--2-2--2--7---0---5---5--5-----5---5---5---5--|
a|---0-0-0-0-0-0-0-0-0-0-0-0--0--0-0--0-0-0-0--0--0-0--0--7---0---5---5--5-----5---5---5---5--|
D|--------------------------------------------------------7---0---5---5--5-----5---5---5---5--|
  pm------------------------|

DELAY for this part. play the notes MANY times quickly, im just posting movements.

  (10:06)         (10:18)               (10:20)                       (10:23)
e|------------------------------------------------------------------------------|
b|------------------------------------------------------------------------------|
g|------------------------------------------------------------------------------|
d|------------------------------------------------------------------------------|
a|------------------------------------------------------------------------------|
D|--7-7-7-7-7-7-7-7/12-12-12-12/14-14-14-14/15-15-15-15-15/17-17-17-17-17/21~---|

  (10:25)					     (10:31)
e|---------------------------------------------------------------------5---5----|
b|---------------------------------------------------------8---8---8-----8------|
g|---------------------------------------------------------7-----7--------------|
d|--12----11----7-7---9-----7-7-/-12-12-\-7-7--7-7-0----5--5~-------------------|
a|--0--0--0--0--0-0-0-0--0--0-0---0--0----0-0--0-0-0----5--5~-------------------|
D|-------------------------------------------------0----5--5~-------------------|

next you will play the A note on the g string vry quickly picking hard with
artificial harmonics.

  (10:36)                    
e|-----|                   
b|-----|                    
g|-----| (10:46) begin to   
d|--7--| add artificial      
a|-----| harmonics to
D|-----| the note


Start out by doing the hammer-on set to the 8th and 10th fret a few times,
then gradually build up to doing it repeatedly

(10:48 until 11:02)    (11:03 until 11:06)
e|--------------------|---------|
b|--------------------|---------|
g|--------------------|---------|
d|--7--7h8h10p7-7-----|----7~---|
a|--------------------|----0~---|
D|--------------------|----0~---|

  (11:06)                                                 x2
e|----------------------------------------------------------|
b|----------------------------------------------------------|
g|---9--9-9------12-12-12-12--------------------------------|
d|---7--7-7---10-10-10-10-10-10-10--12--12-12---7-7--7-7----|
a|------------8--8--8--8--8--8--8---10--10-10---5-5--5-5----|
D|----------------------------------------------------------|

  (11:17)               x3
e|------------------------|
b|------------------------|
g|------------------------|
d|---5--5h7--7--7*--7-----|
a|------------------------|
D|------------------------|

  (11:25)               
e|--------------------------------------|
b|--------------------------------------|
g|--------------------------------------|
d|---5--5h7--7*---::pick scratch::------|
a|--------------------------------------|
D|--------------------------------------|

  (11:29)                                      x1
e|------------------------------------------------|
b|------------------------------------------------|
g|------------------------------------------------|
d|----------14-14-/-17-17-\-12-12-11-11h14-11-7~--|
a|---12-12------------------------------------0~--|
D|------------------------------------------------|

  (11:36)                                             x2
e|------------------------------------------------------|
b|------------------------------------------------------|
g|------------------------------------------------------|
d|----------------14-14-/-17-17-\-12-12-11-11h14-11-11~-|
a|-10-10-/-12-12------------------------------------0~--|
D|------------------------------------------------------|

  (11:52)                                             (12:00)    x1
e|-------------------------------------------------------------------------------|
b|-------------------------------------------------------------------------------|
g|-------------------------------------------------------------------------------|
d|---::pick scratch::--7-7----7----5-------------------------------------7-7-7---|
a|--------------------------7----5----5-5-5-4-7-4-0----7---------7-7-7-7-7-7-7---|
D|-----------------------------------------------------7---7-7-7-7-7-7-7-7-7-7---|
							 pm------------------| 
        							 gradually release palm-mute
 	
TURN OFF DELAY

  (12:05, 12:17, and 12:27)  x3		      
e|-----------------------------|
b|-----------------------(3)---|
g|-----------------------(2)---|
d|--7-7-\-2-2-/-5-5--0-0--0~---|
a|--7-7-\-2-2-/-5-5--0-0--0~---|
D|--7-7-\-2-2-/-5-5--0-0--0~---|

12:34 Silence out everything (you may have to turn off distortion for a second)

  (12:38)		     x1		      
e|-----------------------------|
b|-----------------------(3)---|
g|-----------------------(2)---|
d|--7-7-\-3-3-/-5-5--0-0--0~---|
a|--7-7-\-3-3-/-5-5--0-0--0~---|
D|--7-7-\-3-3-/-5-5--0-0--0~---|

  (12:38)		x1		      
e|-----------------------|
b|-----------------------|
g|-----------------------|
d|--7-7-\-3-3-/-10-10^---|
a|--7-7-\-3-3-/-10-10^---|
D|--7-7-\-3-3-/-10-10^---|

  (12:44)	  x4      
e|------------------|
b|------------------|
g|------------------|
d|--3--0-0--3--0-0--|
a|--3--0-0--3--0-0--|
D|--3--0-0--3--0-0--|

This part has a certain rhythm, it might not be completely correct, but sounds
very close. Find the rhythm.

 (12:50)                             x6
e|-------------------------------------|
b|-------------------------------------|
g|-------------------------------------|
d|--7^-7^-7--7--7-7^-7^--7--7--7--7----|
a|--0--0--0--0--0-0--0---0--0--0--0----|
D|-------------------------------------|

(13:09)                               
                                x4                            
e|--------------------------------|
b|--------------------------------|
g|--------------------------------|
d|--7-7-7-10-1010-10--8-----------|
a|--0-0-0-10-1010-10--8-8h10-10~--|
D|--------10-1010-10--8-----------|

 (13:19)

e|---------------|
b|---------------|
g|---------------|
d|--7--0--10--0--|
a|--7--0--10--0--|
D|--7--0--10--0--|

(pause...look pretty :p)

e|----------------------------|
b|----------------------------|
g|----------------------------|
d|--7---0---10---0----8~-10~--|
a|--7---0---10---0----8~------|
D|--7---0---10---0----8~------|

Hold out all the notes on the last chord
and then add and pick the 10th fret note with your ring finger.


THE END 

Hope you enjoyed the tab...it took a while to write out
Comments