Tool - Pushit Live Chords & Tabs

 

Pushit Live Chords & Tabs

Tool Chords & Tabs

Version: 1 Type: Tab 0 ratings
1 star 2 stars 3 stars 4 stars 5 stars
comments

Pushit Live Tab

   
Band: Tool
Song: Push It (live)
Album: Salival-Boxset
Running time: 13:56

Written by: Tool
Guitarist: Adam Jones
Transcriber: Some guy named Jimmy and perfected by Devin
E-mail: tetsutakashi@aol.com
This is my first tab ever so hope you enjoy and hope its to you liking.
This is just the intro part. The rest of the song is the same as the
studio version. Its play with light distortion and some reverb on the
very start of it but just toy with it it's a great song to play.

Tunging:
Low to High (DADGBe)

~: let ring
\: slide down
/: slide up
h: hammer-on
p: pull-off

E|-----|                 ---------------------------------------------
B|-----| Tremolo this    ---------------------------------------------
G|-----| note over the   -2----2/3--3---3/5---5-5-5—--2/3—3p0--3—3p2—-
D|-0---| rest of this    ---------------------------------------------
A|-----| until noted     ---------------------------------------------
D|-----|                 ---------------------------------------------

----------------------------------------------------------------------
----------------------------------------------------------------------
-5/7--7----9h10-13p10-9h10-9h10-13--10--9---7\5—-5/7-----2/3--5—3p0---
----------------------------------------------------------------------
----------------------------------------------------------------------
----------------------------------------------------------------------
[ Tab from: http://www.guitartabs.cc/tabs/t/tool/pushit_live_tab.html ]
End of Tremolo                       x4             |”Disappear…”
--------------|------------------------|------------------------------|
--------------|------------------------|------------------------------|
-3--2----2--0-|---2----2----2-----2----|---2----2----2------2----2----|
--------------|-0----3----5---------5--|-0----3----5----------5----5--|
--------------|----------------3-------|----------------3-------3----3|
--------------|------------------------|------------------------------|
                                Riff 1a                        Riff 1b
     
2:00                                 x8 2:51 “Pushed away my dear”  x4 
---------------------------------------|------------------------------|
---------------------------------------|------------------------------|
---2---2------2---2------2---2----2----|------------------------------|
-0---0---0--3---3---3--5---5---5----5--|--7---7\3---3--3—-3/5---5\0---|
---------------------------------3----3|--7---7\3---3--3—-3/5---5\0---|
---------------------------------------|--7---7\3---3--3—-3/5---5\0---|
                                Riff 1c                         Riff 2

E|-----------------|                 D|---------|
B|-3---3---3---3---|Some guitar fill A|---------|Bass fill
G|---2-------2-----|                 D|--10/9---| 
                                     
                                     x2
---------------------------------------|------------------------------|
---------------------------------------|------------------------------|
---2---2------2---2------2---2----2----|------------------------------|
-0---0---0--3---3---3--5---5---5----5--|------------------------------|
---------------------------------3----3|------------------------------|
---------------------------------------|------------------------------|


-----------------------------------------------------------------------
-----------------------------------------------------------------------
---2---2------2---2------4---4-----4---4------2---2------2---2------2--
-0---0---0--3---3---3--5---5---5-----5------0---0---0--3---3---3--5----
---------------------------------3-------------------------------------
-----------------------------------------------------------------------
  

                    “I will choke until I swallow…”  
-------------------|---------------------------------------------------
-------------------|---------------------------------------------------
---2---2-----------|---------------------------------------------------
-5---5---5---------|---------------------------------------------------
-----------3-------|---------------------------------------------------
-------------------|---------------------------------------------------
            Riff 1d

At 6:07, starts playing the regular riff, but the guitar keeps going
with Riff 2 until 6:33.
Hope you enjoy this, because I sure do.
Comments