Tool - Prison Sex Chords & Tabs

 

Prison Sex Chords & Tabs

Tool Chords & Tabs

Version: 6 Type: Tab 0 ratings
1 star 2 stars 3 stars 4 stars 5 stars
comments

Prison Sex Tab

   
Prison Sex by Tool

Tabbed by: Radiohead293
Tuning: Drop B

0:17
e|----------------------------------------------------------|
B|----------------------------------------------------------|
G|----------------------------------------------------------|
D|----------------------------------------------------------|
A|---------------------5h7------------------------5h7-------|
B|-0--x-0--x-0--x-0-xx-----------0--x-0-x-0--xxxx-----------|
   m    m    m    m              m    m   m 

e|---------------------------------------------------|
B|---------------------------------------------------|
G|---------------------------------------------------|
D|---------------------------------------------------|
A|---------------------5h7-------7--7-5--5-2--0h2-5--|
B|-0--x-0--x-0--x-0-xx-------------------------------|
   m    m    m    m 

0:26
e|-------------------------|
B|-------------------------|
G|-------------------------|
D|----------2--------------| x4
A|-5--------0-------0h2----|
B|----3--0-------3---------|

0:35
e|---------------------------|
B|---------------------------|
G|---------------------------|
D|---------------------------| x8
A|------------------0-2-2-2--|
B|-3--0--0--5----0-----------|
   m  m  m  m    m  m m m m

0:53
e|---------------------------|
B|---------------------------|
G|---------------------------|
D|---------------------------| x4
A|----5----12\------0h2------|
B|-3-------10\------0--------|

1:02
e|---------------------------|
B|---------------------------|
G|---------------------------|
D|---------------------------| x4
A|------------------0-2-2-2--|
B|-3--0--0--5----0-----------|
   m  m  m  m    m  m m m m 


e|---------------------------|
B|---------------------------|
G|---------------------------|
D|---------------------------| x4
A|----------7-------0-2-2-2--|
B|-3--0--0--5----0-----------|
   m  m  m       m  m m m m    

1:19
e|---------------------------|
B|---------------------------|
G|---------------------------|
D|---------------------------| x3
A|----5----12\------0h2------|
B|-3-------10\------0--------|


e|------------------|
B|------------------|
G|------------------|
D|------------------|
A|----5----12\------|
B|-3-------10\------|

1:28
e|-------------------------------------|
B|-------------------------------------|
G|-------------------------------------|
D|-------------------------------------| x3 
A|-2------12------5------7----7---5----|
B|-0----x-10----x-3----x-5--x-5-x-3-x--|

1:40
e|------------------------------------------------|
B|------------------------------------------------|
G|------------------------------------------------|
D|------------------------------------------------|  
A|-2--2--2--7--7--7--5--5--5/10-10-10-7--7--5--5--|
B|-0--0--0--5--5--5--3--3--3/8--8--8--5--5--3--3--|

1:44
e|-------------------------|
B|-------------------------|
G|-------------------------|
D|----------2--------------| x3
A|-5--------0-------0h2----|
B|----3--0-------3---------|


e|-------------------------|
B|-------------------------|
G|-------------------------|
D|----------2----0h2p0-----| 
A|-5-------------------2p0-|
B|----3--0-----------------|

1:52
e|---------------------------|
B|---------------------------|
G|---------------------------|
D|---------------------------| x4
A|------------------0-2-2-2--|
B|-3--0--0--5----0-----------|
   m  m  m  m    m  m m m m 

e|------------------------------|
B|------------------------------|
G|------------------------------|
D|------------------------------| 
A|-------------7-------0-2-2-2--|
B|-3-0-0-0-0-0-5----0-----------|
   m m m m m m      m  m m m m  


e|---------------------------|
B|---------------------------|
G|---------------------------|
D|---------------------------| x3
A|----------7-------0-2-2-2--|
B|-3--0--0--5----0-----------|
   m  m  m       m  m m m m  

2:11
e|---------------------------|
B|---------------------------|
G|---------------------------|
D|---------------------------| x3
A|----5----12\------0h2------|
B|-3-------10\------0--------|


e|------------------|
B|------------------|
G|------------------|
D|------------------|
A|----5----12\------|
B|-3-------10\------|

2:20
e|-------------------------------------|
B|-------------------------------------|
G|-------------------------------------|
D|-------------------------------------| x3 
A|-2------12------5------7----7---5----|
B|-0----x-10----x-3----x-5--x-5-x-3-x--|
[ Tab from: http://www.guitartabs.cc/tabs/t/tool/prison_sex_tab_ver_6.html ]
2:32
e|------------------------------------------------|
B|------------------------------------------------|
G|------------------------------------------------|
D|------------------------------------------------| x3 
A|-2--2--2--7--7--7--5--5--5/10-10-10-7--7--5--5--|
B|-0--0--0--5--5--5--3--3--3/8--8--8--5--5--3--3--|

2:45
e|-----------------------------|
B|-----------------------------|
G|-----------------------------|
D|-----------------------5h7---| x3 
A|-------------------5h7-------|
B|-0----0--x-0----0------------|
   m    m    m    m

e|---------------------|
B|---------------------|
G|---------------------|
D|-7--7-5--5-2--0h2-5--| 
A|---------------------|
B|---------------------|

2:54
e|---------------------------|
B|---------------------------|
G|---------------------------|
D|---------------------------| x4
A|----5----12\------0h2------|
B|-3-------10\------0--------|

3:14
e|--------0-----------7----------------------------------------|
B|-0-------------7-----------7------5----3-----------3---------|
G|----------------------------------------------2-------4------|
D|-------------------------------------------------------------|  
A|-------------------------------------------------------------|
B|-------------------------------------------------------------|


e|-------------------------------------------------------------|
B|-------------------------------------------------------------|
G|-----4--------------3--------------2-------------------------|
D|-2h4------------2h4------------2h4----------2h4----------/9--|  
A|------------------------------------------------2------------|
B|-------------------------------------------------------------|


e|-------------------------------------------------------------------|
B|------12----12--12-12~-12-12~-12-------11----11--11-11~-11-11~-11--|
G|-9/11-------11--11-11~-11-11~-11--9/11-------11--11-11~-11-11~-11--|
D|-------------------------------------------------------------------|  
A|-------------------------------------------------------------------|
B|-------------------------------------------------------------------|


e|------------------------------------------------------|
B|------10----10--10-10~-10-10~-10----------------------|
G|-9/11-------11--11-11~-11-11~-11--9/11----------------|
D|---------------------------------------9----9*---9*b--| 
A|------------------------------------------------------|
B|------------------------------------------------------|
                                              ph*

3:47
e|----------------------------------------------------------------------|
B|----------------------------------------------------------------------|
G|----------------------------------------------------------------------|
D|--------4----2--0---------4----2--4--5------4----2--0---------4----5--| 
A|-2-----------------2-----------------------------------2--------------|
B|----------------------------------------------------------------------|

3:57
e|-------------------------|
B|-------------------------|
G|-------------------------|
D|---------------------5---| x4 
A|-------------------------|
B|-0----0--x-0---0-0-0-----|

4:08
e|--------------------------------------------|
B|-3p0--0--5p0--0--3p0--0--5p0--0--12p0-10p0--|
G|--------------------------------------------|
D|--------------------------------------------| x4 
A|--------------------------------------------|
B|--------------------------------------------|

4:18
e|-----------------------------------------------------------------------|
B|-17--17-17-17-17-17-17-17-17-17-17-17-17-17-17-17-17-17---17---17---17-|
G|-19b-19-19-19-19-19-19-19-19-19-19-19-19-19-19-19-19-19br-19br-19br-19-|
D|-----------------------------------------------------------------------| 
A|-----------------------------------------------------------------------|
B|-----------------------------------------------------------------------|
  fast picking, slow bend release towards end

4:29
e|--------------------------------------------------|
B|--------------------------------------------------|
G|--------------------------------------------------|
D|-5-----------------------5------------------------| x2 
A|-2-----------------------2------------------------|
B|-0---0---0---0---0-0-0-0-0---0---0---0---0-0-0-0--|


e|--------------------------------------------------|
B|--------------------------------------------------|
G|--------------------------------------------------|
D|-5-----------------------5------------------------| x2 
A|-2-----------------------2------------------------|
B|-0-----------------------0------------------------|


>:)


| /  slide up
| \  slide down
| h  hammer-on
| p  pull-off
| ~  vibrato
| +  harmonic
| x  Mute note
Comments