Tool - Pot Chords & Tabs

 

Pot Chords & Tabs

Tool Chords & Tabs

Version: 2 Type: Tab

Pot Tab

Band:   Tool
Song:   The Pot
Album:  10,000 Days
Tabber: Chris G. Jake-HK


Tunning: DADGBE


:38

|------------------------------------------------------------|
|------------------------------------------------------------|
|------------------------------------------------------------|
|-----0------0--------0-------------0-------0--------0-------|
|----------------------------3-----------------------------3-|
|-0-0---00-0---00-0-0---0-0-3---0-0----00-0---00-0-0--0-0-3--|

|------------------------------------------------------------------------|
|------------------------------------------------------------------------|
|------------------------------------------------------------------------|
|------------------------------------------------------------------x/----|
|----15b~~~r----------15b~~~r----------15b~~~r----------15b~~~r----x/----|
|-0-----------------0----------------0----------------0------------x/----|

1:40
|-----------------------------------------------------------------------------------------------------|
|-----------------------------------------------------------------------------------------------------|
|-----------------------------------------------------------------------------------------------------|
|-----0------0--------0-------------0------0--------0-------------------------------------------------|
|---------------------------3-----------------------------3-----5-5----3-3-/10-10-10-10-10\-55----5p0-|
|-0-0---00-0---00-0-0--0-3h5---0-0---00-0---00-0-0---0-3h5---\5-5---33-3---/10-10-10-10-----55-h6-----|

|-------------------------------------------------------------------------|
|-------------------------------------------------------------------------|
|-------------------------------------------------------------------------|
|------0------0-------0---------------------------------------------------|
|----------------------------3-----5-5----3-3-/10-10-10-10-10-------------|
|-0-0---00-0---00-0-0--00-3h5---\5-5---33-3---/10-10-10-10----1-1-1-1p0---|

|------------------------------------------------------------|
|------------------------------------------------------------|
|------------------------------------------------------------|
|------0------0-------0--------------0------0-------0--------|
|----------------------------3-----------------------------3-|
|-0-0----00-0---00-0-0--0-0-3---0-0----00-0---00-0-0--0-3h5--|

|-------------------------------------|
|-------------------------------------|
|-------------------------------------|
|-------------------------------------|
|----15b~~~r----------15b~~~r--15\\\0-|
|-0-----------------0-----------------|

2:21
|------------------------------------------------------------|
|------------------------------------------------------------|
|------------------------------------------------------------|
|------0------0-------0--------------0------0-------0--------|
|----------------------------3-----------------------------3-|
|-0-0----00-0---00-0-0--0-0-3---0-0----00-0---00-0-0--0-0-3--|

|--------------------------------------------------------------------------------|
|--------------------------------------------------------------------------------|
|-------------------------------------------------------------5~---2------12~----|
|------0-----0--------0------------0-------0--------0---------5~---0--x/--10~----|
|---------------------------3------------------------------3--3~---0--x/--10~----|
|-0-0---00-0---00-0-0--0-0-3---0-0----00-0---00-0-0---0-3h5----~---0--x/--10~----|
                                                                    scrapes

|------------------------------------------------------------------------|
|------------------------------------------------------------------------|
|------------------------------------------------------------------------|
|-----0------0--------0--------------------------------------------------|
|----------------------------3-----5-5----3-3-/10-10-10-10-10\-55----5p0-|
|-0-0---00-0---00-0-0---0-3h5---\5-5---33-3---/10-10-10-10-----55-h6-----|

|-------------------------------------------------------------------------|
|-------------------------------------------------------------------------|
|-------------------------------------------------------------------------|
|------0------0-------0---------------------------------------------------|
|----------------------------3-----5-5----3-3-/10-10-10-10-10-------------|
|-0-0---00-0---00-0-0--00-3h5---\5-5---33-3---/10-10-10-10----1-1-1-1p0---|


3:12
|-------------------------------------------------------------|
|-------------------------------------------------------------|
|-------------------------------------------------------------|
|-------------------------------------------------------------|
|-0-0------5p0---2-2------5p0---3-3------5p0---5-5------5p0---|
|-0-0-xx5h7---xx-2-2-xx5h7---xx-3-3-xx5h7---xx-5-5-xx5h7---x--|x *fig1

|-------------------------------------------------------------|
|-------------------------------------------------------------|
|-------------------------------------------------------------|
|-------------------------------------------------------------|
|-0-0------5p0---2-2------5p0---3-3------5p0---5-5------5p0---|
|-0-0-xx5h7---xx-2-2-xx5h7---xx-3-3-xx5h7---xx-5-5-xx5h7---xx-|
[ Tab from: http://www.guitartabs.cc/tabs/t/tool/pot_tab_ver_2.html ]
|------------------------------------------------------------|
|------------------------------------------------------------|
|--------2-2-----------2-2-----------2-2---------------------|
|-0-0----0-0----2-2----0-0----3-3----0-0----5-5--------------|
|-0-0----0-0----2-2----0-0----3-3----0-0----5-5------5p0-----|
|-0-0-xx-0-0-xx-2-2-xx-0-0-xx-3-3-xx-0-0-xx-5-5-xx5h7---xx---|

|-------------------------------------------------------------|
|-------------------------------------------------------------|
|--------2-2-----------2-2-----------2-2----------------------|
|-0-0----0-0----2-2----0-0----3-3----0-0----5-5----8-8----3-3-|
|-0-0----0-0----2-2----0-0----3-3----0-0----5-5----8-8----3-3-|
|-0-0-xx-0-0-xx-2-2-xx-0-0-xx-3-3-xx-0-0-xx-5-5-xx-8-8-xx-3-3-| *fig2

3:40
|---------------------------------|
|---------------------------------|
|---------------------------------|
|---------------------------------|
|------------12--------------12---|
|-0-0-0h10h12--12--0-0-x10h12--12-| 4x
pm

|-------------------------------------------------------------------|
|-------------------------------------------------------------------|
|-------------------------------------------------------------------|
|-------------------------------------------------------------------|
|------------12---------------15---------------12--------------10---|
|-0-0-0h10h12--12--0-00-012h15--15--0-0-0h10h12--12--0-0-0h8h10--10-| 2x
pm

|-----------------------------------|
|-----------------------------------|
|-----------------------------------|
|-----------------------------------|
|------------12----------------12---|
|-0-0-0h10h12--12--0000-0h10h12--12-| 3x
pm

4:10
|-----------------------------------------------------------------|
|-----------------------------------------------------------------|
|-----------------------------------------------------------------|
|-0-0--------------8-8-8--5-5-7-8---0-0-------------8-8-8-55-77-8-|
|-0-0--------12----8-8-8--5-5-7-8---0-0--------12---8-8-8-55-77-8-|
|-0-0-0h10h12--12--8-8-8--5-5-7-8---0-0-0h10h12--12-8-8-8-55-77-8-|
                       ^upstroke                        ^upstroke

|------------------------------------------------------------|
|------------------------------------------------------------|
|------------------------------------------------------------|
|--10-0--12-7-0-7/8-8--55-7-8---10-0-12-7-0-7/8-8--55-77-8---|
|-/10-0--12-7-0-7/8-8--55-7-8--/10-0-12-7-0-7/8-8--55-77-8---|
|-/10-0--12-7-0-7/8-8--55-7-8--/10-0-12-7-0-7/8-8--55-77-8---|

4:24
|-----------------------------------------------------------------|
|-----------------------------------------------------------------|
|-----------------------------------------------------------------|
|-----------------------------------------------------------------|
|-----------------------------------------------------------------|
|-0-10P0-0-12P0-0-10P0-0-0--0-0-10P0-13P0-0-10P0-0-13P0-0-12P10P0-| 5x
pm


|-----------------------------------------------------------------------|
|-----------------------------------------------------------------------|
|-----------------------------------------------------------------------|
|-----------------------------------------------------------------------|
|---------------------------------3h5------------5-----------------3h5--|
|-0-00-00--0-00--0x-00-00-0000-3h5----00000-0-000----00-00--00003h5-----|
pm                                               ph

|----------------------------------------|
|----------------------------------------|
|----------------------------------------|
|-----------------------3h5-----------0--|
|--------3h5----3----3h5---3h5--------0--|
|-0000-00----3h5--3h5---------3h5-3h5-0--|
pm

|------------------------------------|
|------------------------------------|
|-------------------------------5~---|
|-----0------0--------0---------5~---|
|----------------------------3--3~---|
|-0-0---00-0---00-0-0---0-3h5--------|



|------------------------------------------------------------------------|
|------------------------------------------------------------------------|
|------------------------------------------------------------------------|
|-----0------0--------0--------------------------------------------------|
|----------------------------3-----5-5----3-3-/10-10-10-10-10\-55----5p0-|
|-0-0---00-0---00-0-0---0-3h5---\5-5---33-3---/10-10-10-10-----55-h6-----|

|-------------------------------------------------------------------------|
|-------------------------------------------------------------------------|
|-------------------------------------------------------------------------|
|------0------0-------0---------------------------------------------------|
|----------------------------3-----5-5----3-3-/10-10-10-10-10-------------|
|-0-0---00-0---00-0-0--00-3h5---\5-5---33-3---/10-10-10-10----1-1-1-1p0---||


Fig1 2x

fig2 1x

5:58
|----------------------------------------|
|----------------------------------------|
|----------------------------------------|
|----------------------------------------|
|-5------3------5--------3\5----------6--|
|---7700---5500---7700-3-----7700-3\8----| 2x
pm

|-----------------------------------|
|-----------------------------------|
|-----------------------------------|
|-----------------------------------|
|-5-----3-----5-------3\5---------6-|
|---7-0---5-0---7-0-3-----770-3\8---| 1x
pm

|----------------------------------------|
|----------------------------------------|
|----------------------------------------|
|----------------------------------------|
|-5------3------5--------3\5----------6--|
|---7700---5500---7700-3-----7700-3\8----| end
pm