Tool - Patient Chords & Tabs

 

Patient Chords & Tabs

Tool Chords & Tabs

Version: 1 Type: Tab 3 ratings
1 star 2 stars 3 stars 4 stars 5 stars
comments

Patient Tab

Tuning:	Drop D 
Notes: 	Keep in mind that because it’s a tool song  that they put little side things in and that sometimes makes it very hard to keep playing along.  Also that they repeat sections, I wrote the whole song from start to finish just the way the play it.
Email:    Please feel free to email me comments to ‘ operation_heropsychodreamer@hotmail.com ‘

E[-----------------------]-------------------------------
B[-----------------------]-------------------------------
G[-----------------5-2---]-------------------------------
D[-2h3-0-5-2-2h3-0-------]-------------------------------
A[-----------------------]-3-5-0-7-0-3-5-0-7-0-----------
D[-----------------------]-------------------------------

E[-----------------------]-------------------------------
B[-----------------------]-------------------------------
G[-----------------------]-------------------------------
D[-3-0-5-7-7h8h7-5-------]-7-8-5-7-7-7-10-5-7------------
A[-3-0-5-7-7h8h7-5-------]-------------------------------
D[-3-0-5-7-7h8H7-5-------]-------------------------------
[ Tab from: http://www.guitartabs.cc/tabs/t/tool/patient_tab.html ]
E[-----------------------]-------------------------------
B[-----------------------]-------------------------------
G[-----------------------]-------------------------------
D[-7-8-5-7-7-7-10-5-7----]-3-0-5-7-7h8H7-5---------------
A[-0-0-0-0-0-0-0--0-0----]-3-0-5-7-7h8H7-5---------------
D[-----------------------]-3-0-5-7-7h8H7-5---------------

E[-----------------------]-------------------------------
B[-----------------------]-------------------------------
G[-----------------------]-------------------------------
D[-----------------------]-0-3-5-0-7-0-3-5-0-7-----------
A[-7-5-3-5-0-7-0-3-5-0---]-0-3-5-0-7-0-3-5-0-7-----------
D[-----------------------]-0-3-5-0-7-0-3-5-0-7-----------

E[-----------------------]-------------------------------
B[-----------------------]-------------------------------
G[-----------------------]-------------------------------
D[-3-0-1-0-0-2-3-0-1-0---]-5-7-5-7-5-7-------------------
A[-3-0-1-0-0-2-3-0-1-0---]-5-7-5-7-5-7-------------------
D[-3-0-1-0-0-2-3-0-1-0---]-5-7-5-7-5-7-------------------

E[-----------------------]-------------------------------
B[-----------------------]-------------------------------
G[-----------------------]-----2-4-5-4---4---0-----------
D[---------5-7-----------]---2---------2---2---2---------
A[-----5-7-----5-7-------]-0-----------------------------
D[-5-7-------------------]-------------------------------

E[-----2-----------------]-------------------------------
B[-2-0-3-----------------]-------------------------------
G[-2-0-2-----------------]-----------------5-2-----------
D[-2-0-0-3---------------]-2h3-0-5-2-2h3-0---------------
A[-0-0-0-3---------------]-------------------------------
D[---5-0-3---------------]-------------------------------
Comments