Tool - Part Of Me Chords & Tabs

 

Part Of Me Chords & Tabs

Tool Chords & Tabs

Version: 1 Type: Bass Tab 0 ratings
1 star 2 stars 3 stars 4 stars 5 stars
comments

Part Of Me Bass Tab

Band- Tool
Song- Part Of Me

Intro (:19)
G------------------------------------------------------------------------|
D--5-5-5-4-4-4-2-0-------------------------------------------------------|
A------------------------------3-----3-----------------------------------|
D------------------2-x-x-2-x-x---x-x---x-x-2-x-x-2-x-x-5-5-5-4-4-4-2-0---|

Intro part 2
G--------------------------------------------------------|
D--------------------------------------------------------|
A-------------3-----3------------------------------------|
D-2-x-x-2-x-x---x-x---x-x-2-x-x-2-x-x----5-5-5-4-4-4-2-0-|


(0:32)
G-------------------------------|
D-------------------------------| x4
A-------------------------------|
D--0-6-5-0-3--0-6-5-0-3--3--3---|


G---------------------------------|
D---------------------------------|
A---------3---------3-------------|
D--0-2--0----0-2--0----0-2--10-\--|


(0:46)
G-------------------------------|
D-------------------------------| x2
A-------------------------------|
D--0-6-5-0-3--0-6-5-0-3--3--3---|


G---------------------------------|
D------------------------------6--|  x2
A----6-5---8----6-5---8--6--5-----|
D--0-----0----0-----0-------------|


(1:10)
G---------------------------------------|
D-------------------------------------3-|
A---------------------------------------|
D--0-6-5-0-3--0-6-5-0-3--3-3-3-3-3------|

(1:15)
G--------------------|
D--------------------| listen for how many times he plays it
A--------------------|
D--0-0-0-0-0-0-0-0-0-|
    x x x x x x x x x
[ Tab from: http://www.guitartabs.cc/tabs/t/tool/part_of_me_btab.html ]
(1:32)
G--------------------------------------------------------|
D--------------------------------------------------------|
A--------------3-----3-----------------------------------|
D--2-x-x-2-x-x---x-x---x-x-2-x-x-2-x-x-5-5-5-4-4-4-2-0---|

                                                      x2
G--------------------------------------------------------|
D----------------------------------------5-5-5-4-4-4-2-0-|
A-------------3-----3------------------------------------|
D-2-x-x-2-x-x---x-x---x-x-2-x-x-2-x-x--------------------|


(1:55)
G---------------------------------|
D---------------------------------| x6
A---------------------------------|
D --0-6-5-0-3--0-6-5-0-3--3--3----|

G-----------------------------|
D-----------------------------|
A---------3---------3------3--|
D--0-2--0----0-2--0----0-2----|


play that all the way through then repeat it


(2:35)
G-------------------------------|
D-------------------------------| x6
A-------------------------------|
D--0-6-5-0-3--0-6-5-0-3--3--3---|

G---------------------------------|
D------------------------------6--| x2
A----6-5---8----6-5---8--6--5-----|
D--0-----0----0-----0-------------|


G-------------------------------|
D-------------------------------| x2
A-------------------------------|
D--0-6-5-0-3--0-6-5-0-3--3--3---|


G---------------------------------|
D------------------------------6--| x2
A----6-5---8----6-5---8--6--5-----|
D--0-----0----0-----0-------------|


(3:09)
G---------------------------------|
D---------------------------------|
A---------------------------------|
D--0-6-5-0-3--0-6-5-0-3--3--3--3--|
Comments