Tool - Parabola Chords & Tabs

 

Parabola Chords & Tabs

Tool Chords & Tabs

Version: 2 Type: Tab 0 ratings
1 star 2 stars 3 stars 4 stars 5 stars
comments

Parabola Tab

Tool - Parabola.
 Tabbed by Adam Wallace - awall011@home.com.
  

Tool - Parabola

>From the album Lateralus

Transcribed by Adam Wallace

Email - awall011@home.com


Drop D tuning

-----------------------------------------------------------------
-------------------------10h-12-12-12-----------10h12p10-10-10b--
---------------7h9-9-9-9--------------7h9-9-9-9------------------
-0h2-2-2p0-------------------------------------------------------
-0h2-2-2p0-(x4)----------------------------------------------------
-0h2-2-2p0-------------------------------------------------------


----------------------------------
----------------------------------
----------------------------------
-x-2---x-2---x-2---x-2-x-2-x-2-2--
-x-2---x-2---x-2---x-2-x-2-x-2-2--
-x-2---x-2---x-2---x-2-x-2-x-2-2--


---------------------------
---------------------------
---------------------------
-5-7-2------5-7-2-0-7-5-5--
-5-7-2-(x3)-5-7-2-0-7-5-5--
-5-7-2------5-7-2-0-7-5-5--


----------------------------------------------------------------------
----------------------------------------------------------------------
----------------------------------------------------------------------
-0h2-2-2p0------x-2--x-2--0--0h2-2-2p0--2-4-0------2--0h2-2-2p0-------
-0h2-2-2p0-(x7)-x-2--x-2--0--0h2-2-2p0--2-4-0-(x3)-2--0h2-2-2p0-(x4)--
-0h2-2-2p0------x-2--x-2--0--0h2-2-2p0--2-4-0------2--0h2-2-2p0-------

solo (incomplete)
----------------------------------------------------------------
-----------10h12-12-12-12-----------10h12p10-10-15-14-10h12-14--
-7h9-9-9-9----------------7h9-9-9-9-----------------------------
----------------------------------------------------------------
----------------------------------------------------------------
----------------------------------------------------------------


--------------------------------------------------------------------------------------
-(don't know first bit)--10-10h12p10-8-7-8-7\\5--(pinch harmonics, not sure of notes)--
--------------------------------------------------------------------------------------
--------------------------------------------------------------------------------------
--------------------------------------------------------------------------------------
--------------------------------------------------------------------------------------

[ Tab from: http://www.guitartabs.cc/tabs/t/tool/parabola_tab_ver_2.html ]
------------------------------------------------------
------------------------------------------------------
------------------------------------------------------
-0h2-2-2p0------x-2--x-2--0--0h2-2-2p0--2-4-0------2--
-0h2-2-2p0-(x7)-x-2--x-2--0--0h2-2-2p0--2-4-0-(x3)-2--
-0h2-2-2p0------x-2--x-2--0--0h2-2-2p0--2-4-0------2--


------------------------------------------------------------------
------------------------------------------------------------------
---------------4---------------4---------------4---------------4--
---------------4-2-------------4-2-------------4-2-------------4--
---------------2-2-------------2-2-------------2-2-------------2--
-----------------2---------------2---------------2----------------

bass line
-2-0-5-0-2-0-9-0-2-0-5-0-2-0-9-0-2-0-5-0-2-0-9-0-2-0-5-0-2-0-9-0--


-------------------------------------------------
-------------------------------------------------
-------------------------------------------------
-2-0--/7-5\\-------2-0-x-x-x-x-/7-5\\--------------
-2-0--/7-5\\-(x4)--2-0-x-x-x-x-/7-5\\-(x4)---------
-2-0--/7-5\\-------2-0-x-x-x-x-/7-5\\--------------


--------------------------------------------------------------------
--------------------------------------------------------------------
--------------------------------------------------------------------
--------------------------------------------------------------------
---2---5--------2-----(x4)--2p0-------------2p0---------------(x2)--
-2---5---0--2-0---0-5-----------5p4p2p0-0-0-----5p4p2p0-2-2-2-------


-------------------------------------------------------------------------
-------------------------------------------------------------------------
-------------------------------------------------------------------------
-------------------------------------------0h2p0--------------0h2--------
---2---5--------2------------------0h2-----------(x3)-----0h2-----0h2----
-2---5---0--2-0---0-5--0h2-x-x-x-x-----x-x------------0h2-------------0--


--------------------------------------------
--------------------------------------------
--------------------------------------------
-x-x-x-x-x-2-------2-5/7-0-5/7-2/4-5\\4-0-2--
-x-x-x-x-x-2-(x12)-2-5/7-0-5/7-2/4-5\\4-0-2--
-x-x-x-x-x-2-------2-5/7-0-5/7-2/4-5\\4-0-2--


-------------------------------------------------
-------------------------------------------------
-----------------------------4-------------------
-2h4-2h4-2h4-2/5\\2/5-2-2-0-0-4-------------------
-2h4-2h4-2h4-2/5\\2/5-2-2-0-0-2--(repeat to end)--
-2h4-2h4-2h4-2/5\\2/5-2-2-0-0---------------------

i know it's not perfect but it's pretty damn close, so don't whine to me about it.
if anyone figures out rest of the solo or the quiet bit at the ens, plz mail it to me.
otherwise, that's it. enjoy.
 
:: Ultimate Guitar Archive :: 
http://www.ultimate-guitar.com 



Comments