Tool - Parabol And Parabola Chords & Tabs

 

Parabol And Parabola Chords & Tabs

Tool Chords & Tabs

Version: 3 Type: Tab 0 ratings
1 star 2 stars 3 stars 4 stars 5 stars
comments

Parabol And Parabola Tab

   
-------------------------------------------------------------------------------
			    parabol/parabola - Tool
-------------------------------------------------------------------------------
Tabbed by:Garett Brown
Email:cramett_69@hotmail.com

Tuning:drop D
                                 parabol
e|---------------------------------------------------------------------------|
B|----------------------------------------repeat like a million times--------|
G|--------2h4-----------2h4p2------------------------------------------------|
D|-0h2-----------0h2---------------------------------------------------------|
A|---------------------------------------------------------------------------|
E|-2------2------2------2----------------------------------------------------|

                                 parabola
e|---------------------------------------------------------------------------|
B|---------------------------------------------------------------------------|play 2x
G|---------------------------------------------------------------------------|
D|---------------------------------------------------------------------------|
A|---------------------------------------------------------------------------|
E|-0h2--2--2/3\2--5-2-0--0-0-0-0h2--2--2/3\2--5-2-0--0-0-0-------------------|

e|---------------------------------------------------------------------------|
B|---------------------------------------------------------------------------|
G|---------------------141414h16-1616-16-1616--------------------------14h16p14|
D|-12h14-1414-14-1414--------------------------121212h14-1414-14-1414--------|
A|---------------------------------------------------------------------------|
E|---------------------------------------------------------------------------|

e|---------------------------------------------------------------------------|
B|---------------------------------------------------------------------------|
G|---------------------------------------------------------------------------|
D|-x-2----x-2----x-2----x-2--x-2--x-2-2-2------------------------------------|
A|-x-2----x-2----x-2----x-2--x-2--x-2-2-2------------------------------------|
E|-x-2----x-2----x-2----x-2--x-2--x-2-2-2------------------------------------|
...where not chosing to be here...

e|------------------------------||-------------------------------------------|
B|-------------------play 3x----||-------------------play the last time------|
G|------------------------------||-------------------------------------------|
D|-5-55--7-77--77--2-22--2-22---||-5-55--7-77--77--5-55--0-00-00-------------|
A|-5-55--7-77--77--2-22--4-44/5-||-5-55--7-77--77--3-33--0-00-00-------------|
E|-5-55--7-77--77--2-22--2-22---||-5-55--7-77--77--------0-00-00-------------|
 ...this hole in reality...                     ...choosing to beleive in...

e|---------------------------------------------------------||----------------|
B|---------------------------------------play 3 1/2x-------||----------------|last 1/2
G|---------------------------------------------------------||----------------|
D|---------------------------------------------------------||-x-2--x-2--0----|
A|---------------------------------------------------------||-x-2--x-2--0----|
E|-0h2--2--2/3\2--5-2-0--0-0-0-0h2--2--2/3\2--5-2-0--0-0-0-||-x-2--x-2--0----|
                                                     ...pain is an allusion...

e|----------------------------||---------------------------------------------|
B|------------------play 3x---||---------------------------------------------|
G|----------------------------||---------------------------------------------|
D|-2p0-0-0--2p0-0--2--0-0-2h4-||-2p0-0-0--2p0-0--2---------------------------|
A|-2p0-0-0--2p0-0--2--0-0-2h4-||-2p0-0-0--2p0-0--2---------------------------|
E|-2p0-0-0--2p0-0--2--0-0-2h4-||-2p0-0-0--2p0-0--2---------------------------|

e|---------------------------------------------------------------------------|
B|---------------------------------------------------------------------------|play 2x
G|---------------------------------------------------------------------------|
D|-0h2--2--2/3\2--5-2-0--0-0-0-0h2--2--2/3\2--5-2-0--0-0-0-------------------|
A|-0h2--2--2/3\2--5-2-0--0-0-0-0h2--2--2/3\2--5-2-0--0-0-0-------------------|
E|-0h2--2--2/3\2--5-2-0--0-0-0-0h2--2--2/3\2--5-2-0--0-0-0-------------------|
 
  solo
e|---------------------------------------------------------------------------|
B|---------------------------------------------------------------------------|
G|---------------------141414h16-1616-16-1616--------------------------14h16p14|
D|-12h14-1414-14-1414--------------------------121212h14-1414-14-1414--------|
A|---------------------------------------------------------------------------|
E|---------------------------------------------------------------------------|

e|-----------------------------------------------------------|
B|--15-14----15-----------15-14------------------------------|
G|--------12-----12-11-12-------12-14b12--14b-12-11-12-11b-9-|
D|-----------------------------------------------------------|
A|-----------------------------------------------------------|
E|-----------------------------------------------------------|
[ Tab from: http://www.guitartabs.cc/tabs/t/tool/parabol_and_parabola_tab_ver_3.html ]
e|----------10+-9+-----------10+-9+--10+-10+-9+------------------------------|
B|-8+-7+-8+---------8+-7+-8+--------------------10+-8+~~~--------------------|
G|---------------------------------------------------------------------------|
D|---------------------------------------------------------------------------|
A|---------------------------------------------------------------------------|
E|---------------------------------------------------------------------------|
                                                 ...choosing too beleive in...

e|---------------------------------------------------------||----------------|
B|------------------------------------------play 3 1/2x----||----------------|last 1/2
G|---------------------------------------------------------||----------------|
D|-0h2--2--2/3\2--5-2-0--0-0-0-0h2--2--2/3\2--5-2-0--0-0-0-||-x-2--x-2--0----|
A|-0h2--2--2/3\2--5-2-0--0-0-0-0h2--2--2/3\2--5-2-0--0-0-0-||-x-2--x-2--0----|
E|-0h2--2--2/3\2--5-2-0--0-0-0-0h2--2--2/3\2--5-2-0--0-0-0-||-x-2--x-2--0----|
                                                     ...pain is an allusion...

e|----------------------------||---------------------------------------------|
B|------------------play 3x---||---------------------------------------------|
G|----------------------------||---------------------------------------------|
D|-2p0-0-0--2p0-0--2--0-0-2h4-||-2p0-0-0--2p0-0--2---------------------------|
A|-2p0-0-0--2p0-0--2--0-0-2h4-||-2p0-0-0--2p0-0--2---------------------------|
E|-2p0-0-0--2p0-0--2--0-0-2h4-||-2p0-0-0--2p0-0--2---------------------------|

e|------------------------------------||-------------------------------------|
B|------------------------------------||-----------------play softly---------|play 2x
G|-4----------4----------4----------4-||-------------------------------------|
D|-4--2-------4--2-------4--2-------4-||-2-2-0--7-7-5--2-2-0--7-7-5----------|
A|-2--2-------2--2-------2--2-------2-||-2-2-0--7-7-5--2-2-0--7-7-5----------|
E|----2----------2----------2---------||-2-2-0--7-7-5--2-2-0--7-7-5----------|
                                   twirling round in this formiliar parabol...

e|---------------------------------------------------------------------------|
B|---------------------------------------------------------------------------|play 4x
G|---------------------------------------------------------------------------|
D|-2-2-xx-0-xxxxxxx-7-77-xx-5--5-xx------------------------------------------|
A|-2-2-xx-0-xxxxxxx-7-77-xx-5--5-xx------------------------------------------|
E|-2-2-xx-0-xxxxxxx-7-77-xx-5--5-xx------------------------------------------|
  ...a chance too be~~~~..  

e|----------------------||---------------------------------------------------|
B|-------------play 3x--||---------------------------------------------------|
G|----------------------||---------------------------------------------------|
D|----------------------||---------------------------------------------------|
A|-------5--------------||-2-0-5-0----2-0-5----------------------------------|
E|-2-0-5--0--2-0-2-0-0--||---------0--------0-0------------------------------|

e|--------------------------------------||-----------------------------------|
B|--------------------------------------||-----------------------------------|
G|--------------------------------------||-----------------------------------|
D|-2-0-------0-0-0--2-0-------2-0-2-7-5-||-2-0-------0-0-0--2-0-------2-0-2--|
A|-----------0-0-0------------2-0-2-7-5-||-----------0-0-0------------2-0-2--|
E|-----5-4-2-0-0-0------5-4-0-2-0-2-7-5-||-----5-4-2-0-0-0------5-4-0-2-0-2--|

e|----------------------||------------------||-------------------------------|
B|----------------------||--------play 3x---||-------------------------------|
G|----------------------||------------------||-------------------------------|
D|----------------------||------------------||-------------------------------|
A|-------5--------------||-------0h2x-5h7-5-||------0h2x-5h7x-0h2x-----------|
E|-2-0-5--0---2-0-5-0-0-||-0h2x-x-----------||-0h2x----------------0---------|

e|-------------------||------------------------------------------------------|
B|----------play 6x--||------------------------------------------------------|
G|-------------------||------------------------------------------------------|
D|-2-xxxxxx-0-xxxxxx-||-------------2--2--0--/2--2h4-2h4-2h4-2h4-4b-b--------|
A|-2-xxxxxx-0-xxxxxx-||-----0----0--2--2--0--/2--2---2---2---2---2b-b--------|
E|-2-xxxxxx-0-xxxxxx-||-2-5----2--0-2--2--0--/2--4---4---4---4---4b-b--------|
  this body holden'me...            ...pain is an allusion...

e|-----------------------------------------||--------------------------------|
B|-----------------------------------------||--------------------------------|
G|-----------------------------------------||--------------------------------|
D|-2--2-2-2--2-2-0-0--2h4-2h4-2h4-2h4-4b-b-||-2------------------------------|
A|-2--2-2-2--2-2-0-0--2---2---2---2---2b-b-||-2------------------------------|
E|-2--2-2-2--2-2-0-0--4---4---4---4---4b-b-||-2------------------------------|

e|-----------------------------------------12~-------------------------------|
B|-----------------------------------12~-------------------------------------|
G|-------4-2h4p2p0---0---------12~-------------------------------------------|
D|-0h2-------------4---4-0-2-------------------------------------------------|
A|---------------------------------------------------------------------------|
E|-2-------------------------------------------------------------------------|


| /  slide up
| \  slide down
| h  hammer-on
| p  pull-off
| ~  vibrato
| +  harmonic
| x  Mute note
| b  bend note
===============================================================================
Comments