Tool - Lateralus Chords & Tabs

 

Lateralus Chords & Tabs

Tool Chords & Tabs

Version: 1 Type: Tab 1 rating
1 star 2 stars 3 stars 4 stars 5 stars
comments

Lateralus Tab

   
Lateralus 

[This was created with TabIt for Windows version 1.55]

                                       
E  :---------------------------------*3|
B  :--------------1------------------*||
G  :----2---0-2-0-----2~---2-0-2-0--- ||
D  :--------------------------------- ||
A  :--------------------------------- ||
D  :0------------------------------0- ||
                                       

                                                                          
E  :|*--------------------------------|---------------------------------*3|
B  :|*--------------------------------|--------------1------------------*||
G  :| ----2---2---2-------2---2---2---|----2---0-2-0-----2~---2-0-2-0-*- ||
D  :| *-------------------------------|-------------------------------0- ||
A  :| --------------------------------|--------------------------------- ||
D  :| 5---------------3---------------|0-------------------------------- ||
             Echo                                                         

                                                                     
E  :--------------------------------|--------------------------------|
B  :--------------------------------|--------------------------------|
G  :----2---2---2-------2---2---2---|--------------------------------|
D  :--------------------------------|0-----0-*-x-0-----0---0-5-5-5-0-|
A  :--------------------------------|0-----0-*-x-0-----0---0-5-5-5-0-|
D  :5---------------3---------------|0-----0-*-x-0-----0---0-5-5-5-0-|
                                                                     

                                                                        
E  :--------------------------------|-----------------------------------|
B  :--------------------------------|-----------------------------------|
G  :--------------------------------|-----------------------------------|
D  :2-0-3-----3-*-x-3-----3---x-5-5-|3-0-3-/5-5-5-x-5-5---3---10---12---|
A  :2-0-3-----3-*-x-3-----3---x-5-5-|3-0-3-/5-5-5-x-5-5---3---10---12---|
D  :2-0-3-----3-*-x-3-----3---x-5-5-|3-0-3-/5-5-5-x-5-5---3---10---12---|
                                                                        

                                                                     
E  :--------------------------------|--------------------------------|
B  :--------------------------------|--------------------------------|
G  :--------------------------------|--------------------------------|
D  :0-----0-*---0-----0---0-5-5-5-0-|2-0-3-----3-*---3-----3---x-5-5-|
A  :0-----0-*-x-0-----0---0-5-5-5-0-|2-0-3-----3-*-x-3-----3---x-5-5-|
D  :0-----0-*-x-0-----0---0-5-5-5-0-|2-0-3-----3-*-x-3-----3---x-5-5-|
                                                                     

                                                                        
E  :-----------------------------------|--------------------------------|
B  :-----------------------------------|--------------------------------|
G  :-----------------------------------|--------------------------------|
D  :3-0-3-/5-5-5-x-5-5---3---10---12---|0-----0-*---0-----0---0-5-5-5-0-|
A  :3-0-3-/5-5-5-x-5-5---3---10---12---|0-----0-*-x-0-----0---0-5-5-5-0-|
D  :3-0-3-/5-5-5-x-5-5---3---10---12---|0-----0-*-x-0-----0---0-5-5-5-0-|
                                                                        

                                                                      
E  :--------------------------------|---------------------------------|
B  :--------------------------------|---------------------------------|
G  :--------------------------------|---------------------------------|
D  :2-0-3-----3-*---3-----3---x-5-5-|3-0-3-/5-5-5-x-5-5---3---3-*-----|
A  :2-0-3-----3-*-x-3-----3---x-5-5-|3-0-3-/5-5-5-x-5-5---3---3-5-3-0-|
D  :2-0-3-----3-*-x-3-----3---x-5-5-|3-0-3-/5-5-5-x-5-5---3---3-5-3-0-|
                                                                      

                                                                       
E  :--------------------------------||*--------------------------------|
B  :--------------------------------||*--------------------------------|
G  :--------------------------------|| --------------------------------|
D  :--*-----------------------------|| --------------------------------|
A  :0-*-----------------------------|| 7-5-3-0-0-0-0-3-3-3-3---0-0-0-0-|
D  :0-*-----------------------------|| 7-5-3-0-0-0-0-3-3-3-3---0-0-0-0-|
                                                                       

                                       
E  :----------*7|----------------------|
B  :----------*||----------------------|
G  :---------- ||----------------------|
D  :---------- ||----------------------|
A  :5-5-5-5-5- ||*--5-5-5-5-*-5-5-5-5-*|
D  :5-5-5-5-5- ||*--5-5-5-5-*-5-5-5-5-*|
                                       

                                                                       
E  :---------|*-----------------------|--------------------------------|
B  :---------|*-----------------------|--------------------------------|
G  :---------| -----------------------|--------------------------------|
D  :---------| 0-----0-*---0-----0---0|-5-5-5-0-2-0-3----3-*---3-----3-|
A  :-5-5-5-5-| 0-----0-*-x-0-----0---0|-5-5-5-0-2-0-3----3-*-x-3-----3-|
D  :-5-5-5-5-| 0-----0-*-x-0-----0---0|-5-5-5-0-2-0-3----3-*-x-3-----3-|
                                                                       

                                                                        
E  :---------------------------------|----------------------------------|
B  :---------------------------------|----------------------3-----------|
G  :---------------------------------|----------------------2-----------|
D  :--x-5-5-3-0-3-/5-5-5-x-5-5---3---|10---12---0-----0-----0-----0---0-|
A  :--x-5-5-3-0-3-/5-5-5-x-5-5---3---|10---12---0-----0---0-0-----0---0-|
D  :--x-5-5-3-0-3-/5-5-5-x-5-5---3---|10---12---0-----0---0-0-----0---0-|
                                                                        

                                                                      
E  :--------------------------------|---------------------------------|
B  :*-----------------------6-------|----*----------------------------|
G  :*-----------------------5-------|----*----------------------------|
D  :5-5-5-0-2-0-3-----3-----3-----3-|--3-5-5-3-0-3-/5-5-5---5-5---3---|
A  :5-5-5-0-2-0-3-----3---3-3-----3-|--3-5-5-3-0-3-/5-5-5---5-5---3---|
D  :5-5-5-0-2-0-3-----3---3-3-----3-|--3-5-5-3-0-3-/5-5-5---5-5---3---|
                                                                      

                                              
E  :------|*--------------*7|-----------------|
B  :------|*--------------*||-----------------|
G  :------| -------------- ||----9-h10-p9-0---|
D  :*-----| *-----10---12- ||---------------7-|
A  :3-5-3-| 0-0----*------ ||-----------------|
D  :3-5-3-| 0-0----*------ ||-----------------|
           # see  come nt   s                 

                                       
E  :-----------------------------------|
B  :-----------------------------------|
G  :-------------9-h10-p9-0------------|
D  :------------------------7-5--------|
A  :----------------------------8------|
D  :-----------------------------------|
                                       

                                           
E  :---------------------------------------|
B  :---------------------------------------|
G  :------9-h10-p9-0-----------------------|
D  :-----------------10----9---10----------|
A  :------------------------------10-12----|
D  :---------------------------------------|
                                           

                                            
E  :----------------------------------------|
B  :----------------------------------------|
G  :--------------9-h10-p9-0----------------|
D  :-------------------------7-5------------|
A  :----/17----------------------8------/12-|
D  :----------------------------------------|
                                            

                                         
E  :-------------------------------------|
B  :-------------------------------------|
G  :--------9-h10-p9-0-----------------0-|
D  :-------------------10-----9-----10---|
A  :-------------------------------------|
D  :-------------------------------------|
                                         

                                         
E  :-------------------------------------|
B  :-------------------------------------|
G  :-------------------------------------|
D  :-------------------------/10-12-10-0-|
A  :12-----------------------------------|
D  :-------------------------------------|
         ##                              

                                          
E  :--------------------------------------|
B  :--------------------------------------|
G  :--------------------------------------|
D  :12---0---10---12---10---12---0---12---|
A  :12---0---10---12---10---12---0---12---|
D  :12---0---10---12---10---12---0---12---|
                                          

                                          
E  :--------------------------------------|
B  :--------------------------------------|
G  :--------------------------------------|
D  :12-*---12---12-*---12---12-*---12-----|
A  :12-*---12---12-*---12---12-*---12-----|
D  :12-*---12---12-*---12---12-*---12-----|
                                          

                                                                     
E  :--------------------------------|--------------------------------|
B  :--------------------------------|--------------------------------|
G  :--------------------------------|--------------------------------|
D  :*-------------------------------|--------------------------------|
A  :*-------------------------------|--------------------------------|
D  :*-------------------------------|--------------------------------|
                                                                     

                                                                     
E  :--------------------------------|--------------------------------|
B  :--------------------------------|--------------------------------|
G  :------------------------2-------|--------2----------------2------|
D  :--------------------------------|--------------------------------|
A  :--------------------------------|--------------------------------|
D  :--------------------5-----------|----3----------------0----------|
                                                                     

                                                                     
E  :--------------------------------|--------------------------------|
B  :--------------------------------|--------------------------------|
G  :---------------------2----------|-----2---------------2---0-2-0--|
D  :--------------------------------|--------------------------------|
A  :--------------------------------|--------------------------------|
D  :-----------------5--------------|-3---------------0--------------|
                                                                     
[ Tab from: http://www.guitartabs.cc/tabs/t/tool/lateralus_tab.html ]
                                                                     
E  :--------------------------------|--------------------------------|
B  :--------------------------------|--------------------------1-----|
G  :----------------2---------------|2---------------2---0-2-0-----2-|
D  :--------------------------------|--------------------------------|
A  :--------------------------------|--------------------------------|
D  :------------5---------------3---|------------0-------------------|
                                                                     

                                                                       
E  :--------|*------------------------|--------------------------------|
B  :--------|*------------------------|-------------------------------1|
G  :--------| ------2---------------2-|--------------2---0----2--0-----|
D  :--------| ------------------------|--------------------------------|
A  :--------| ------------------------|--------------------------------|
D  :--------| --5---------------3-----|----------0---------------------|
                                                                       

                                                                       
E  :--------------------------------*5|--------------------------------|
B  :--------------------------------*||-------------------------1------|
G  :-------2------2---0---2---0---*- ||--------2---0----2--0-----------|
D  :------------------------------0- ||--------------------------------|
A  :-------------------------------- ||--------------------------------|
D  :-------------------------------- ||----0---------------------------|
                                                                       

                                                                     
E  :--------------------------------|--------------------------------|
B  :--------------------------------|-----------------1--------------|
G  :-2------2---0---2---0---*-------|2---0----2--0------------2------|
D  :------------------------0-------|--------------------------------|
A  :--------------------------------|--------------------------------|
D  :----------------------------0---|--------------------------------|
                                                                     

                                                                     
E  :--------------------------------|--------------------------------|
B  :--------------------------------|---------1----------------------|
G  :2---0---2---0---*-------2---0---|-2--0------------2------2---0---|
D  :----------------0---------------|--------------------------------|
A  :--------------------------------|--------------------------------|
D  :--------------------0-----------|--------------------------------|
                                                                     

                                                                     
E  :--------------------------------|--------------------------------|
B  :--------------------------------|--------------------------------|
G  :2---0---*--------2--------------|2--------------2---0----2--0----|
D  :--------0-----------------------|--------------------------------|
A  :-------------5-----*--------3---|---*----------------------------|
D  :-------------5-----*--------3---|---*-------0-------*------------|
                                                                     

                                                                       
E  :--------------------------------|----|*----------------------------|
B  :1-------*-----------------------|----|*----------------------------|
G  :--------2------2---0---2---0---*|----| ----2---------------2-------|
D  :-------------------------------0|----| 5---------------3-----------|
A  :--------------------------------|----| 5---------------3-----------|
D  :--------------------------------|----| 5---------------3-----------|
                                                                       

                                     
E  :---------------------------------|
B  :---------------------------------|
G  :--------2---0----2---0-----------|
D  :---p0-------------------0---5----|
A  :---p0-----------------------5----|
D  :---p0-----------------------5----|
                                     

                                                                       
E  :----------------------------------------------------*2|------------|
B  :----------------------------------------------------*||------------|
G  :---2------0---2---0---*-------2---0----2--0--------- ||------------|
D  :----------------------0---3-------------------0----- ||3-----------|
A  :--------------------------3------------------------- ||3-----------|
D  :--------------------------3---*--------------------- ||3-----------|
                                                                       

                                        Trem. Pick                  
E  :---------------------------------|------------------------------|
B  :---------------------------------|------------------------------|
G  :---------------------------------|------------------------------|
D  :----------------p0---------------|---*--------------------------|
A  :----------------p0---------------|-/12--------------------------|
D  :----------------p0---------------|---*--------------------------|
                                        ###                         

                                                             
E  :----------------------------|----------------------------|
B  :----------------------------|----------------------------|
G  :----------------------------|----------------------------|
D  :----------------------------|----------------------------|
A  :----------------------------|----------------------------|
D  :----------------------------|----------------------------|
                                                             

    Tre m   P i ck                                                      
E  :---------------------------------|----------------------------------|
B  :---------------------------------|----------------------------------|
G  :---------------------------------|----------------------------------|
D  :12--b-b-b-b-b--------------------|----------------/-/-/-xxxxx\-\-\--|
A  :---------------------------------|----------------------------------|
D  :---------------------------------|----------------------------------|
                                                      ^ P ick Sc r a pe 

                                      
E  :----------------------------------|
B  :----------------------------------|
G  :----------------------------------|
D  :----------------12-------12-------|
A  :----------------------------------|
D  :----------------------------------|
                                      

                                         
E  :-------------------------------------|
B  :-------------------------------------|
G  :-------------------------------------|
D  :12-----12----10-12---10------5--3--0-|
A  :-------------------------------------|
D  :-------------------------------------|
                                         

                                        
E  :------------------------------------|
B  :------------------------------------|
G  :------------------------------------|
D  :---------------5--3--0--------------|
A  :--3-----2----------------3----------|
D  :------------------------------------|
                                        

                                      
E  :----------------------------------|
B  :----------------------------------|
G  :----------------------------------|
D  :---------0-h3-h5------5-----------|
A  :----3-----------------5-----------|
D  :----------------------5-----------|
                                      

                                              More lik   
E  :----------------|*----------------|----------------*15
B  :----------------|*----------------|----------------*||
G  :----------------| ----------------|---------------- ||
D  :--3-------------| 0---0-x-0---0-x-|0---0-x-0---0-x- ||
A  :--3-------------| 0---0-x-0---0-x-|0---0-x-0---0-x- ||
D  :--3-------------| 0---0-x-0---0-x-|0---0-x-0---0-x- ||
                                              40 repea   

   e                                                             
E  :--------------------|----------------------------------------|
B  :--15---15---13---13-|--15---15---18---18---15---15---13---13-|
G  :--14---14---12---12-|--14---14---17---17---14---14---12---12-|
D  :--12---12---10---10-|--12---12---15---15---12---12---10---10-|
A  :--12---12---10---10-|--12---12---15---15---12---12---10---10-|
D  :--12---12---10---10-|--12---12---15---15---12---12---10---10-|
   ts                                                            

                                               
E  :----------------------|*--------------|--*5|
B  :--18---18---15---15---|*--------------|--*||
G  :--17---17---14---14---| --------------|-- ||
D  :--15---15---12---12---| 5---5-x-5---5-|x- ||
A  :--15---15---12---12---| 5---5-x-5---5-|x- ||
D  :--15---15---12---12---| 5---5-x-5---5-|x- ||
                                               

                                  
E  :------------------------------|
B  :------------------------------|
G  :------------------------------|
D  :3---0---3-3-3---0--3-3--3--0--|
A  :3---0---3-3-3---0--3-3--3--0--|
D  :3---0---3-3-3---0--3-3--3--0--|
                                  

    Wah  C lo se d                                                      
E  :---------------------|*-------------------*5||*-------------------*4|
B  :---------------------|*-------------------*|||*-------------------*||
G  :---------------------| ------------------- ||| ------------------- ||
D  :---------------------| ------------------- ||| ------------------- ||
A  :17---*-------15------| --------------15--- ||| 17------------15--- ||
D  :----15-15-17----0----| 19---15-15-17----0- ||| -----15-15-17----0- ||
                                                                        

                                                                 
E  :--------------------------|----------------------------------|
B  :--------------------------|----------------------------------|
G  :--------------------------|----------------------------------|
D  :------------------------5-|--3---10---12---0-----------------|
A  :-17-------------15------5-|--3---10---12---0-----------------|
D  :-17----15-15-17----17---5-|--3---10---12---0-----------------|
                                                                 

                                                                     
E  :--------------------------------|--------------------------------|
B  :--------------------------------|--------------------------------|
G  :--------------------------------|--------------------------------|
D  :--------------------------------|------------*-------------------|
A  :--------------------------------|------------*-------------------|
D  :--------------------------------|------------*-------------------|
                                                                     

Comments