Tool - Lateralis Chords & Tabs

 

Lateralis Chords & Tabs

Tool Chords & Tabs

Version: 2 Type: Tab 1 rating
1 star 2 stars 3 stars 4 stars 5 stars
comments

Lateralis Tab

   
Band: Tool	
Album: Lateralus
Song: Lateralis - Track 9
 

Played in Drop D tuning - D, A, D, G, B, E . 


Guitar intro - Clean
-------------------------------     ----------------------------------------------- 
-------------------------------     ----------------------------------------------- 
----------------5--------------     ----------------------------------------------- 
-----7--5h7--5-----7-7--5h7-5p0     -----7-7-----7-7-------------------------------
-------------------------------     ----------------------------------------------- 
-0----------------------------- x4  --5------3------------------------------------- 


Play around with these chords with the cd to get rythem.

[ Tab from: http://www.guitartabs.cc/tabs/t/tool/lateralis_tab_ver_2.html ]
------------------------------------------------------------------------------ 
------------------------------------------------------------------------------ 
-----------------------------------------------------5-7---------------------- 
-0-0-x-0-0-x-5-5-5-5-3-3-x-3-3-x-5-5-5-3-3/5-5-5-5-3-5-7----------------------
-0-0-x-0-0-x-5-5-5-5-3-3-x-3-3-x-5-5-5-3-3/5-5-5-5-3-3-5---------------------- 
-0-0-x-0-0-x-5-5-5-5-3-3-x-3-3-x-5-5-5-3-3/5-5-5-5-3--------------------------


This is all i know so far, tool songs are strange. I'll figure out the rest some time.

Tabbed by : Dan Dupont - pinion76@hotmail.com
                                                                               
                                                                               
Comments