Tool - H Chords & Tabs

 

H Chords & Tabs

Tool Chords & Tabs

Version: 2 Type: Tab 3 ratings
1 star 2 stars 3 stars 4 stars 5 stars
comments

H Tab

"H" by Tool
Album: Aenima
Tabbed by: DxL - MelvinTheLlama@aol.com - AIM: dxlogan187 - MSN: dxlogan316@hotmail.com


Drop-D Tuning: DADGBE


Intro                               Vol. swell   Double Time Feel
E|--------------|------------------|----------|--------------|----------------|
B|--------------|------------------|----------|--------------|----------------|
G|--------------|------------------|----------|--------------|----------------|
D|--------------|------------------|----------|--------------|----------------|
A|---0----0-----|---0----0---------|---5b-----|---0----0-----|---0----0-------|
D|---0------3---|---0------3--5----|----------|---0------3---|---0------3--5--|

E|--------------|------------------|---10-------------|
B|---3----------|--------3---------|---10-------------|
G|---2----------|--------2---------|---7--------------|
D|---0----------|---x-x--0---------|---0--------------|
A|---0----------|---x-x--0---------|---0--------------|
D|---0----------|---x-x--0---------|---0--------------|

1st Verse
  P.M.----------|                 P.M.-------|
E|------------------------------|----------------------------|
B|------------------------------|----------------------------|
G|---------------5---5h7p5---5--|-------------5---5-5\4---5--| play 2x
D|-----------7-----7-------7----|---------7-----7-------5----|
A|---(5)-(5)---8----------------|---(5)-x---8----------------|
D|------------------------------|----------------------------|

E|---------------|----------------------|---------------------------|
B|---------------|----------------------|---------------------------|
G|---------------|----------------------|---------------------------|
D|---7-----------|--7---5---7h8-7-------|--7---5---(5)\2---2---0----|
A|---------------|----------------------|---------------------------|
D|---------------|----------------------|---------------------------|

                                                   P.M.-----|
E|----------------------|------------------------|--------------------------|
B|----------------------|------------------------|--------------------------|
G|--------------0-------|---------5---5h7p5---5--|-----------5---5-5\4---5--|
D|----------------------|-----7-----7-------7----|-------7-----7-------5----|
A|---3/5\(3)--3---3-5---|---5---8----------------|---5-5---8----------------|
D|----------------------|------------------------|--------------------------|

1st Pre-chorus
  P.M.---------------------------------------------------------|
E|--------------------------------------------------------------------------|
B|--------------------------------------------------------------------------|
G|--------------------------------------------------------------------------|
D|-------7---5------------7---5------------7---5------------7---x-5---5p0---|
A|---x-5---8---7-0-5--5-5---8---7-5-0--5-5---8---7-0-5--5-5---8-x-5---5p0---|
D|--------------------------------------------------------------x-5---5p0---|
[ Tab from: http://www.guitartabs.cc/tabs/t/tool/h_tab_ver_2.html ]
  P.M.------|              P.M.-----|                pick scrapes          
E|-----------------------|--------------------------|---------------|-----|
B|-----------------------|--------------------------|---------------|-----|
G|-----------------------|--------------------------|---------------|-----|
D|-------7---x-5---5p0---|-------7---x-x-5----0-----|--------xx-xx--|--0--|
A|---5-5---8-x-5---5p0---|---5-5---8-x-x-5----0-----|--xx--xx-------|--0--|
D|-----------x-5---5p0---|-----------x-x-5----0-----|----xx---------|--0--|
  pick scrapes
E|------------|
B|------------|
G|------------|
D|--xxxx------|
A|------xx----|
D|--------xx--|

2nd Verse

P.M.-----------------------------------------------------------------------
E|--------------------------------------------------------------------------|
B|--------------------------------------------------------------------------|
G|--------------------------------------------------------------------------|
D|--------------------------------------------------------------------------|
A|--------0----------------0--------------0----------------0--------3\2-----|
D|---0------3-----3p0-0------3-5---5-0------3-----3p0-0------3--3h5-----5---|


P.M.-----------------------------------------------------------------------
E|--------------------------------------------------------------------------|
B|--------------------------------------------------------------------------|
G|--------------------------------------------------------------------------|
D|----------------------------------------5p0-------------------------------|
A|--------0--------3-------------0----3h5-----3h5-------0--------3----------|
D|---0------3--3h5---5p3p0--0------3---------------0------3--3h5---5p3p0--0-|

  P.M.-----------------------------------------------|
E|--------------------------|-------------------------------------|
B|--------------------------|-------------------------------------|
G|--------------------------|-------------------------------------|
D|-----------------5p0------|------7---5----------7---x-5---5p0---|
A|--------0----3h5-----3p0--|--x-5---8---7-0-5--5---8-x-5---5p0---|
D|---0------3---------------|--x----------------------x-5---5p0---|

                        2nd Pre-chorus
  P.M.---|                                      P.M.-----|
E|---------------------|-----------------------|-----------------------|
B|---------------------|-----------------------|-----------------------|
G|---------------------|-----------------------|-----------------------|
D|----7---x-x-5---5p0--|------7---x-x-5---5p0--|--x---7---x-x-5---5p0--|
A|--5---8-x-x-5---5p0--|----5---8-x-x-5---5p0--|--x-5---8-x-x-5---5p0--|
D|--------x-x-5---5p0--|--0-------x-x-5---5p0--|--x-------x-x-5---5p0--|

E|--------------|
B|--------------|
G|--------------|
D|------7-------|
A|----5---8b----|
D|--x-----------|

Chorus
E|---------------------------------------------------------------------------|
B|---------------------------------------------------------------------------|
G|---------------------------------------------------------------------------|
D|--0---7-3--5-----5p0-0---7-3--5-----5p0-0---7-3--5-----5p0-0---7-3---3s10--|
A|--0---7-3--5-----5p0-0---7-3--5-----5p0-0---7-3--5-----5p0-0---7-3---3s10--|
D|--0---7-3--5-----5p0-0---7-3--5-----5p0-0---7-3--5-----5p0-0---7-3---3s10--|

E|-----------------------------------------------------------------------------|
B|-----------------------------------------------------------------------------|
G|-----------------------------------------------------------------------------|
D|--0---7-3--5-----5p0-0---7-3--5-----10--0---7-3--5-----5p0-0---7-3--5---(5)/-|
A|--0---7-3--5-----5p0-0---7-3--5-----10--0---7-3--5-----5p0-0---7-3--5---(5)/-|
D|--0---7-3--5-----5p0-0---7-3--5-----10--0---7-3--5-----5p0-0---7-3

Comments