Tool - H Chords & Tabs

 

H Chords & Tabs

Tool Chords & Tabs

Version: 2 Type: Bass Tab

H Bass Tab

   
Tool - H

Album: AEnima (1996)
Bass: Justin Chancellor
Tuning: tune "E" to "D" 
Tabbed by: Stefan Langkabel

Measure: 4/4 ,andante (Metronome: ca.99)

0:00   (play with Distortion)                           

   1 + 2 + 3 + 4 +  1 + 2 + ...  1 + 2 + 3 + 4 +  1 + 2 + ...      (2x)
G|-----------------|-----------|-----------------|-----------|
D|-----7-----------|-----------|-----7-----------|-----------|
A|-------8---------|-----------|-------8---10----|-----------|
D|-0---------------|-----------|-0---------------|-----------|

0:19                           
                                       
   1 + 2 + 3 + 4 +   1 + 2 + 3 + 4 +    First: Play 4x with Distortion ! 
G|-----------------|-----------------|   Then: Play 6x without Distortion !
D|-----7-----------|-----7-----------|   
A|-------8---------|-------8---10----|
D|-0---------------|-0---------------|

1:08 

   1 + 2 + 3 + 4 +   1 + 2 + 3 + 4 +   1 + 2 + 3 + 4 +   1 + 2 + 3 + 4 + 
G|-----------------|-----------------|-----------------|-----------------| (1x)
D|-----7---5-------|-----7---5-------|-----7---5-------|-----5-.---------|
A|---5---8---7---5-|---5---8---7-5---|---5---8---7---5-|---7---8---------|
D|-0-----------7---|-0-------------7-|-0-----------7---|-0---------5-----|

1:17  

   1 + 2 + 3 + 4 +   1 + 2 + 3 + 4 +
G|-----------------|-----------------|   (2x)
D|-----7---5-------|-----5-.---------|
A|---5---8---7---5-|---7---8---------|
D|-0-----------7---|-0---------5-----|

1:27   

   1 + 2 + 3 + 4 +
G|-----------------|  (4x)
D|-----5-.---------|
A|---7---8---------|
D|-0---------5-----|

1:37 with Distortion

   1 + 2 + 3 + 4 +   1 + 2 + 3 + 4 +
G|-----------------|-----------------|    (2x)
D|-----7-----------|-----7-----------|
A|-------8---------|-------8---10----|
D|-0---------------|-0---------------|

1:46 Distortion off

   1 + 2 + 3 + 4   +    1 + 2 + 3 + 4 +
G|---------5---5h7p5--|---------5---5p4--| (3x) the last 3 notes are 1 triplet !
D|-----7-----7------7-|-----7-----7----5-|    
A|-5-5---8------------|-5-5---8----------|    
D|--------------------|------------------|

There is a little variation which begins at 2:01 min:

   1 + 2 + 3 + 4   +    1 + 2 + 3 + 4 +
G|---------5---5h7p5--|---------5p4------| (1x) the last 6 notes are 2 triplets !
D|-----7-----7------7-|-----7------75p4--|    
A|-5-5---8------------|-5-5---8--------5-|    
D|--------------------|------------------|

2:06

   1 + 2 + 3 + 4   +    1 + 2 + 3 + 4 +
G|---------5---5h7p5--|---------5---5p4--|  (1x)
D|-----7-----7------7-|-----7-----7----5-|
A|-5-5---8------------|-5-5---8----------|
D|--------------------|------------------|

   1 + 2 + 3 + 4   +    1 + 2 + 3 + 4 +
G|---------5---5h7p5--|-----------------|   (1x)
D|-----7-----7------7-|-----7-.---------|
A|-5-5---8------------|---5---8---------|
D|--------------------|-0---------5-----|

2:16

   1 + 2 + 3 + 4 +   1 + 2 + 3 + 4 +
G|-----------------|-----------------|  (2x)
D|-----5---5-------|-----7-.---------|
A|---5---8---7---5-|---5---8---------|
D|-0-----------7---|-0---------5-----|

2:25
   1 + 2 + 3 + 4 +                1 + 2 + 3 + 4 + 
G|-----------------|    (7x)   G|-----------------|   (1x)
D|-----7-.---------|           D|-----7-----------|
A|---5---8---------|           A|---5---8~~~------|
D|-0---------5-----|           D|-0---------------|

2:44 with Distortion

   1 + 2 + 3 + 4 +
G|-----------------|  (3x)
D|-----------------|
A|-----0-----------|
D|-0-----3---5-----|

   1 + 2 + 3 + 4 +   1 + 2 + 3 + 4 +   1 + 2 + 3 + 4 +
G|-----------------|-----------------|-----------------|  (1x)
D|-----------------|-----------------|-----------------|
A|-----0-----------|-----0-----------|-----0-----.---3-|
D|-0-----3---5-/10-|-0-----3---5-----|-0-----3---5-----|

   1 + 2 + 3 + 4 +
G|-----------------|   (2x)
D|-----------------|
A|-----0-----------|
D|-0-----3---5-----|

3:04  with Distortion  
                               
   1 + 2 + 3 + 4 +  1 + 2 + ...   1 + 2 + 3 + 4 +  1 + 2 + ...   (2x)
G|-----------------|------------|-----------------|------------|
D|-----7-----------|------------|-----7-----------|------------|
A|-------8---------|------------|-------8---10----|------------|
D|-0---------------|------------|-0---------------|------------|

After playing the Intro: Distortion off !!!

3:28 (quiet part)

   1 + 2 + 3 + 4 +   1 + 2 + 3 + 4 +   1 + 2 + 3 + 4 +   1 + 2 + 3 + 4 + 
G|-----------------|-----------------|-----------------|-----------------|
D|-----------------|-----------------|-----------------|-----------------|
A|-----------------|-----------------|-----------------|-----------------|
D|-8-----8-----8-/-|-5-----5-----5-/-|-10----10----10-/|-8-----8-----8---|                  
[ Tab from: http://www.guitartabs.cc/tabs/t/tool/h_btab_ver_2.html ]
   1 + 2 + 3 + 4 +   1 + 2 + 3 + 4 +   1 + 2 + 3 + 4 +   1 + 2 + 3 + 4 + 
G|-----------------|-----------------|-----------------|-----------------|
D|-----------------|-----------------|-----------------|-----------------|
A|-----------------|-----------------|-----------------|-------8---------|
D|-8-----8-----8-/-|-5-----5---5-5-/-|-10----10----10-/|-8------------8--|

   1 + 2 + 3 + 4 +   1 + 2 + 3 + 4 +   1 + 2 + 3 + 4 +   1 + 2 + 3 + 4 + 
G|-----------------|-----------------|-----------------|-----------------|
D|-----------------|-----------------|-----------------|-----------------|
A|-----------------|-------5-----5---|-------10--------|-------8-----8-8-|
D|-8-----8-----8-8-|-5-------------5/|-10----------10/-|-8---------------|

   1 + 2 + 3 + 4 +   1 + 2 + 3 + 4 +   1 + 2 + 3 +  4  +    1 + 2 + 3 + 4 + 
G|-----------------|-----------------|--------------------|-----------------|
D|-----------------|-----------------|--------------------|-----------8-8-8-|
A|-------8---8-8-8-|-------5---5-5-5-|-------10-----10----|-------8---------|
D|-8---------------|-5---------------|-10--------10----10-|-8---------------|

   1 + 2 + 3 + 4 +   1 + 2 + 3 + 4 +   1 + 2  + 3 + 4  +    1 + 2 + 3 + 4 + 
G|-----------------|-----------------|--------------------|-----------------|
D|-----------------|-----------------|--------------------|-----------------|
A|-------8-----8---|-----5-------5---|-----10-------10----|-----8-------8---|
D|-8---8---------8/|-5-----5-------5/|-10-----10-------10/|-8-----8---8---8-|

   1 + 2 + 3 + 4 +   1 + 2 + 3 + 4 +   1 + 2  + 3 + 4  +    1 + 2 + 3 + 4 + 
G|-----------------|-----------------|--------------------|-----------------|
D|-----------------|-----------------|--------------------|-----------------|
A|-----8-------8---|-----5-------5---|-----10-------10----|-----------------|
D|-8-----8-------8/|-5-----5-------5/|-10-----10-------10/|-8-8-8-8-8-8-8-8-|

   1 + 2 + 3 + 4 +    1 + 2 + 3 + 4 +   
G|------------------|------------------|
D|------------------|------------------|
A|------------------|------------------|
D|-8-8-8-8-8-8-8-88-|-5-5-5-5-5-5-5-55-|

   1  +  2  +  3  +  4  +     1 + 2 + 3 + 4 + 
G|--------------------------|-----------------|
D|--------------------------|-----------------|
A|--------------------------|-----------------|
D|-10-10-10-10-10-10-10-109-|-888-8-8-8-8-8-8-|

   1 + 2 + 3 + 4 +  1 + 2 + 3 + 4 +  1  +  2  +  3  +  4  + 
G|-----------------|----------------|------------------------|
D|-----------------|----------------|------------------------|
A|-----------------|----------------|------------------------|
D|-8-8-8-8-8-8-8-8/|5-5-5-5-5-5-5-5/|10-10-10-10-10-10-10-10-|

G|-----------------|-----------------|-----------------|
D|-----------------|-----------------|-----------------|
A|-----------------|-----------------|-----------------|
D|-0---------------|-----------------|-----------------|

4:47 (heavy part)

   1   +   2   +   3   +   4   +
G|---------------------------------| (8x)
D|---------------------------------|
A|---------------------------------|
D|-3p0-0-1p0-0-3p0-0-0-3p0-1p0-3-4-|

5:06 min

   1   +   2   +   3   +   4   +
G|---------------------------------|  (4x)
D|---------------------------------|
A|-------0-0-0---------------------|
D|-0-0-0-------3-3-3-5-5-5-5-5-5-0-|

5:16 min    with Distortion

   1 + 2 + 3 + 4 +   1 + 2 + 3 + 4 +   1 + 2 + 3 + 4 +   1 + 2 + 3 +  4  +  
G|-----------------|-----------------|-----------------|--------------------|
D|-----5-------8---|-----------------|-----5-------8---|-----------10-10-12-| 
A|-------6---------|-------10--0-3-5-|-------6---------|-------10-----------|     
D|-0---------------|-0---------------|-0---------------|-0------------------| 

   1 + 2 + 3 + 4 +   1 + 2 + 3 + 4 +   1 + 2 + 3 + 4 +   1 + 2 + 3 +  4  + 
G|-----------------|-----------------|-----------------|--------------------|
D|-----5-----8-7---|-----------------|-----5-----8-7---|-----------10-10-12-|
A|-------6-------8-|-------10--0-3-5-|-------6-------8-|-------10-----------|
D|-0---------------|-0---------------|-0---------------|-0------------------|

   1 + 2 + 3 + 4 +   1 + 2 + 3 + 4 +
G|-----------------|-----------------|
D|-----5-----8-7---|-----------------|
A|-------6-------8-|-----8-10--0-3-5-|
D|-0---------------|-0---------------|

   1 + 2 + 3 + 4 +   1 + 2 + 3 + 4 +   1 + 2 + 3 + 4 +
G|-----------------|-----------------|-----------------|
D|-----5-----------|-----------------|-----------------|
A|-------6---------|-8-------10------|-----------------|
D|-0-------------0-|-------0---------|0----------------|

Distortion off !
5:55 Outro

   1 + 2 + 3 + 4 +   1 + 2 + 3 + 4 +   1 + 2 + 3 + 4 +   1 + 2 + 3 + 4 + 
G|-14--------------|-14----12--------|-14----12--------|-----------------|
D|-----------------|-----------------|-------------12-h|-15--------------|
A|-----------------|-----------------|-----------------|-----------------|
D|-----------------|-----------------|-----------------|-----------------|

Thatīs all. I hope you enjoy the song.