Tool - Grudge Chords & Tabs

 

Grudge Chords & Tabs

Tool Chords & Tabs

Version: 5 Type: Tab 0 ratings
1 star 2 stars 3 stars 4 stars 5 stars
comments

Grudge Tab

   
Drop D tuning
Dropped 1 & 1/2 Steps          key:  - = Strum Down  + = Strum Up
B-F#-B-E-G#-C#                         #x = riff below played # times

Intro  16X

c#----------------------
g#---------------------
e----------------------
b---------------------
f#--------------------
b------0h1p0--0-----


4X
c#---------------------------------------------
g#---------------------------------------------
e-----------------------------------------------
b-----------------------------------------------
f#----------------5----------------------------
b-------0h1p0----------0h1p0---3------------


Intro again 20X 


then:

c#-----------------------------------------------------------------
g#----------------------------------------------------15----15-----
e-----------------------------------------------------14----14----
b----0----0-----0-----0---0------0------0-------0-----0------0----
f#---0----0-----0-----0---0------0------0-------0-----------------
b----0----0-----0-----0---0------0------0-------0-----------------


Bass line; enter drums, then:

    Listen for ryhthm

4X
c#-----------------------------                    c#------------------
g#----------------------------                     g#-----------------
e-----------------------------        then:        e-------------------
b-----0------0---0------0-0--      (pick-up)       b---5--5---3-------
f#----0------0---0------0-0--                      f#--3--3---3--------
b-----0------0---0------0-0--                      b---5--5---3-------


       "Clutch it like a cornerstone....."     (palm muted)
4X   - + - + -  + - + - + - + - + - +  - + - + - + - + -
c#-------------------------------------------------
g#------------------------------------------------
e--------------------------------------------------
b----0---x-x---x-3--x-x-----5---x-x-3---x-x----
f#---0---x-x---x-3--x-x-----3---x-x-3---x-x----
b----0---x-x---x-3--x-x-----5---x-x-3---x-x----


     "Saturn Ascends...."  (palm muted)
4X   - + - + - + -  + - + - + - +  - + - + -
c#-----------------------------------------------
g#----------------------------------------------
e------------------------------------------------
b----0-----0---0----0-0-----0-0----0-----0-0---
f#---0-----0---0----0-0-----0-0----0-----0-0---
b----0-----0---0----0-0-----0-0----0-----0-0---


      
2x
c#----------------------------------------------------------------------------
g#----------------------------------------------------------------------------
e------------------------------------------------------------------------------
b-----------------------------------------------------------------------------
f#-------------------12----------------------------12--------10--------------
b----12h13p12-------------------12h13p12---------------------------------


  let ring; gradual pull on tremelo

1X
c#----------------------
g#---------------------
e----------------------
b------0---------------
f#--------------------
b---------------------

    listen for rhythm (it's easy)  "Clutch it like a cornerstone.."

8X   - + - + - +  - + - + - + - + - + - + - +
c#-------------------------------------------
g#------------------------------------------
e--------------------------------------------
b----0------------3-----------5-------3----
f#---0------------3-----------3-------3----
b----0------------3-----------5-------3----



4X
c#---------------------------------              c#---------------------
g#---------------------------------              g#---------------------
e-----------------------------------      then:  e ----------------------
b----0-----10----12----12s13----                 b--------10---------------
f#---0-----10----12----12s13---                  f#-------10--------------
b----0-----10----12----12s13---                  b--------10--------------



4X    -  + - +   -  +  -  + - + - + - + - + - + - 
c#---------------------------------------------------------
g#--------------------------------------------------------
e-----------------------------------------------------------
b-----0------0-----0----0-0-----0-0--0-----0-0-----------
f#----0------0-----0----0-0-----0-0--0-----0-0-----------
b-----0------0-----0----0-0-----0-0--0-----0-0-----------


 "Wear the grudge like a crown...."

4X
c#---------------------------------------------------------------------
g#---------------------------------------------------------------------
e----------------------------------------------------------------------
b-----------------0h3---------------0--0------0--0----0-----0--0---
f#---5p3----------------0-----------0--0------0--0----0-----0--0---
b-----------0-------------------0---0--0------0--0----0-----0--0---


then:

2X
c#---------------------------------------------------------------------
g#---------------------------------------------------------------------
e----------------------------------------------------------------------
b-----------------0h3---------------0--0--------------------10--10----
f#---5p3----------------0-----------0--0--------------------10--10---
b-----------0-------------------0---0--0--------------------10--10----

c#---------------------------------------------------------------------
g#---------------------------------------------------------------------
e----------------------------------------------------------------------
b-----------------0h3---------------0--0--------------------5--5----
f#---5p3----------------0-----------0--0--------------------5--5---
b-----------0-------------------0---0--0--------------------5--5----

c#---------------------------------------------------------------------
g#---------------------------------------------------------------------
e----------------------------------------------------------------------
b-----------------0h3---------------0--0----------8--8-------3--3--------
f#---5p3----------------0-----------0--0----------8--8-------3--3--------
b-----------0-------------------0---0--0----------8--8-------3--3---------


right before "Saturn comes back around...."  (not sure about this)
[ Tab from: http://www.guitartabs.cc/tabs/t/tool/grudge_tab_ver_5.html ]
4X
c#------------------------------------------------------------------
g#------------------------------------------------------------------
e-------------------------------------------------------------------
b-----0------0------0--0-----3----5p0--0----10--12p0---------
f#----0------0------0--0-----3----5p0--0----10--12p0----------
b-----0------0------0--0-----3----5p0--0----10--12p0-----------

play previous riff (you'll know if you listen to the song)


solo

c#---------------------------------------------------------------------
g#--------------------------------------------------------------------
e------------5---------------------------------5---------7\---------
b---------------------5-------3--5----------------------------3---5-----
f#----5---------------------------------5-----------------------------
b-----------------------------------------------------------------------

c#------------------------------------------------------------------------
g#---------------------------------------------------------------------------
e------------5---------------------------------5--------7\----5---7--------
b---------------------5-------3--5-----------------------------------------
f#----5--------------------------------5------------------------------------
b---------------------------------------------------------------------------

c#------------------------------------------------------------------
g#------------------------------------------------------------------
e-----8-----7-------5--7--8-----7-----10\------5---7-------------
b-------------------------------------------------------------------
f#------------------------------------------------------------------
b-------------------------------------------------------------------

c#------------------------------------------------------------------
g#------------------------------------------------------------------
e-----8-----7-------5--7--8-----7-----10\------5---7------------
b-------------------------------------------------------------------
f#------------------------------------------------------------------
b-------------------------------------------------------------------

c#------------------------------------------------------------------
g#------------------------------------------------------------------
e-------------------------------------------------------------------
b------0------------0-------------0-------------0-----------------
f#-----0------------0-------------0-------------0------------------
b------0------------0-------------0-------------0------------------


play previous riffs until the scream when you play:

4X
c#------------------------------------------------------------------
g#------------------------------------------------------------------
e--------------5---------------------------------------------------
b-----0h1p0----5----------0h1p0-----3--------------------------
f#----0h1p0----3----------0h1p0-----3-------------------------------
b-----0h1p0---------------0h1p0-----3------------------

c#------------------------------------------------------------------
g#------------------------------------------------------------------
e--------------5---------------------------------------------------
b-----0h1p0----5----------0h1p0-----3--------------------------
f#----0h1p0----3----------0h1p0-----3-------------------------------
b-----0h1p0---------------0h1p0-----3------------------

c#------------------------------------------------------------------
g#------------------------------------------------------------------
e--------------5---------------------------------------------------
b-----0h1p0----5----------0h1p0-----3--------------------------
f#----0h1p0----3----------0h1p0-----3-------------------------------
b-----0h1p0---------------0h1p0-----3------------------

c#------------------------------------------------------------------
g#------------------------------------------------------------------
e--------------5---------------------------------------------------
b-----0h1p0----5----------0h1p0--1p0----3----------------------
f#----0h1p0----3----------0h1p0--1p0----3------------------------
b-----0h1p0---------------0h1p0--1p0----3------------------

not sure about next part

      After "let go, let go, ...."
     -  +  -  +  -  +  -  +  -  +  -  +  -  +  -  +  -  +  -  +  
c#-------------------------------------------------------------------
g#-------------------------------------------------------------------
e---------------------------------------------------------------------
b----0--------0-----0--0-----0-----1-----0--------0--------0-----
f#---0--------0-----0--0-----0-----1-----0--------13-------12------
b----0--------0-----0--0-----0-----1-----0--------0--------0----------

     -  +  -  +  -  +  -  +  -  +  -  +  -  +  -  +  -  +  -  +  
c#-------------------------------------------------------------------
g#-------------------------------------------------------------------
e---------------------------------------------------------------------
b----10------10----10--10---10-----15------15----15-15----15------
f#---10------10----10--10---10-----15------15----15-15----15------
b----10------10----10--10---10-----15------15----15-15----15------

     -  +  -  +  -  +  -  +  -  +  -  +  -  +  -  +  -  +  -  +  
c#-------------------------------------------------------------------
g#-------------------------------------------------------------------
e---------------------------------------------------------------------
b----0--------0-----0--0-----0-----1-----0--------1-----0--------
f#---0--------0-----0--0-----0-----1-----0--------1-----0---------
b----0--------0-----0--0-----0-----1-----0--------1-----0------------
   
     -  +  -  +  -  +  -  +  -  +  -  +  -  +  -  +  -  +  -  +  
c#-------------------------------------------------------------------
g#-------------------------------------------------------------------
e---------------------------------------------------------------------
b----5--------5-----5--5-----5-----0-----3------------------------
f#---5--------5-----5--5-----5-----0-----3----------------------
b----5--------5-----5--5-----5-----0-----3------------------------


8X
  
c#------------------------
g#-----------------------
e--------------------------
b---0h1p0----1------------------
f#--0h1p0----1------------------
b---0h1p0----1------------------


8X

c#--------------------------
g#-------------------------
e----------------------------
b---0----0----0----0------
f#--0----0----0----0------
b---0----0----0----0------

Comments