Tool - Grudge Chords & Tabs

 

Grudge Chords & Tabs

Tool Chords & Tabs

Version: 3 Type: Tab 0 ratings
1 star 2 stars 3 stars 4 stars 5 stars
comments

Grudge Tab

   
Gtr I (D A D G B E) - 'The Grudge'

The Grudge by TOOL
Transcribed by : Undertow_45
       

               
		Intro
 
Gtr I
E|-------------------------------------|
B|-------------------------------------|
G|-------------------------------------|
D|-------7-------5-------10-------1----|
A|-------------------------------------|
D|-0h1p0---0h1p0---0h1p0----0h1p0------|


|--------------------|
|--------------------|
|--------------------|
|-------0------------|
|--------------------|
|-0h1p0---0h1p0-3----|


|---------------------------------------|
|---------------------------------------|
|---------------------------------------|
|---------------------------------------|
|---------------------------------------|
|-0h1p0-0--0h1p0-0--0h1p0-0--0h1p0-0----|


		(play heavy)

|------------------------------------|
|------------------------------------|
|-------------------------7--7--7----|
|-0--0--0--0--0--0--0--0--0--0--0----|
|-5--5--5--5--5--5--5--5--5--5--5----|
|-0--0--0--0--0--0--0--0--0--0--0----|


		 its the slower part 

|-------------------------|
|-------------------------|
|-------------------------|
|-----7-----10-----3------|
|-5p3---8p7----5p3---3----|
|-0-----------------------|

		Pre-chorus #1

|-----------------------------------------|
|-----------------------------------------|
|-----------------------------------------|
|-------7-------7-5--------7-------7-5----|
|-----------------------------------------|
|-0h1p0---0h1p0------0h1p0---0h1p0--------|

[ Tab from: http://www.guitartabs.cc/tabs/t/tool/grudge_tab_ver_3.html ]
		Chorus
	
|----------------------------------------------|
|----------------------------------------------|
|-7-x-x-10-----5---5---------------------------|
|-7-x-x-10-x-x-5---3-----7-----10-----7---8----|
|-5-x-x--8-x-x-3-0-3-----5------8-----5---6----|
|-0-0-0--0-0-0---0-3-----0-0-0----0-0---0------|


|--------------------------|
|--------------------------|
|--------------------------|
|--------------------------|
|-5-5-5-5-5-5-5-5-5-5-5----|
|-0-0-0-0-0-0-0-0-0-0-0----|


|---------------------------------------------|
|---------------------------------------------|
|---------------------------------------------|
|---------------------------------------------|
|-3p0---5p0-3-----5-5---3p0---5p0-3-----12----|
|-----0-----3-0---5-5-------0-----3-0---12----|


|--------------------------------|
|--------------------------------|
|-3-3----------------------------|
|-3-3-3-3--0---------------------|
|-1-1-3-3--0------5---8---3------|
|-----3-3--0------0-0---0---3----|


|-----------------------------------------------------------|
|-----------------------------------------------------------|
|-----------------------------------------------------------|
|-0---0-----------------------------------------------------|
|-5---5----5-3----------5-3-\5---------6-5--3h5-6-5-\8--3h5-|
|-0---0----0-0-5--3h5---0-0-----3h5-------------------------|


|--------------------------------------------|
|--------------------------------------------|
|-------2---------------7-----5----10-5-7----|
|-0h1p0-0-0h1p0-3----------------------------|
|-0h1p0---0h1p0-3----------------------------|
|-0h1p0---0h1p0-3----------------------------|


"Crazy" part at the end (this is the only part of the song 
that isn't fully right)


|---------------------------------------------------------|
|---------------------------------------------------------|
|---------------------------------------------------------|
|-7-7-7-7-7-8-7-8-7-7-7-7-7-5-5-5-5-5-10-10-10-10----3----|
|-5-5-5-5-5-6-5-6-5-5-5-5-5-3-3-3-3-3--8--8--8--8----3----|
|-0-0-0-0-0-0-0-0-0-0-0-0-0-0-0-0-0-0--0--0--0--0----3----|

Any questions, comments, or genital advice, contact me at:
Undertow_45@hotmail.com
Comments