Tool - Flood Chords & Tabs

 

Flood Chords & Tabs

Tool Chords & Tabs

Version: 2 Type: Tab 0 ratings
1 star 2 stars 3 stars 4 stars 5 stars
comments

Flood Tab

   
Flood by Tool

By Dave (cesarosummability_1@hotmail.com)

Dropped D

~=let ring
()=harmonic
///=slide

Intro

E---------------------------------------0~-------------
B---------------------------------------3~-------------
G---------------------------------------2~-------------
D-----------------------------(12)~-----0~-------------
A--------------------(12)--12-----------0~-------------
D-0~-0-6~-6////12-12--------------------0~-------------

After That...
[ Tab from: http://www.guitartabs.cc/tabs/t/tool/flood_tab_ver_2.html ]
E-------------------------------------------------------
B-------------------------------------------------------
G-------------------------------------------------------
D-------------------------------------------------------
A-5-5-6-6-5-5~-3-0-0~-----------------------------------
D-5-5-6-6-5-5~-3-0-0~-----------------------------------

This Rock...

E-------------------------------------------------------
B-------------------------------------------------------
G-------------------------------------------------------
D-------------------------------------------------------
A--3-3-3-0-0-0~-----------------------------------------
D--3-3-3-0-0-0~-----------------------------------------

LETS GET ONE THING STRAIGHT

AT THE BEGINNING, AT 2:30 TO 3:10, HE IS NOT MOANING "WATER"
HE IS SAYING "HERE COMES THE WATER"
Comments