Tool - Eon Blue Apocalypse Chords & Tabs

 

Eon Blue Apocalypse Chords & Tabs

Tool Chords & Tabs

Version: 8 Type: Tab 0 ratings
1 star 2 stars 3 stars 4 stars 5 stars
comments

Eon Blue Apocalypse Tab

   
Tabbed by: The #1 TOOL Fan
Tuning: Drop D....of course

*This song is played with guitar only. No bass required.

Tremelo picking through the beginning
E|-----------------------------|
B|-----------------------------|
G|-----------------------------|
D|fades in 0~~~~~~~~~~~~~~~~~~~|
A|-----------------------------|
D|-----------------------------|

E|-----------------------------|
B|-----------------------------|
G|-----------------------------|
D|~~~~~~~~~~~~~~~~~~~~~~~~~~~~~|
A|-----------------------------|
D|-----10h12-------10h12--3h5--|
[ Tab from: http://www.guitartabs.cc/tabs/t/tool/eon_blue_apocalypse_tab_ver_8.html ]
E|-------------------------------------|
B|-------------------------------------|
G|-------------------------------------|
D|~~~~~~~~~~~~~~~~~~~~~~~~~~~~~~~~~~~~~|
A|-------------------------------------|
D|--15--10h12------10h12--3h5p0--------|

E|-----------------------------------------------|
B|-----------------------------------------------|
G|-----------------------------------------------|
D|~~~~slow down~~~~8\7-7-----3h5-3/7\3-----------|
A|-----------------------------------------------|
D|-------------------------------------------0---|

E|--------------------------------------------X--|
B|--------------------------------------------3--|
G|---------------------0----------------------2--|
D|--8\7-7-----3h5-3/7\5------5-0-5-0----------0--|
A|--------------------------6-6-6-6-6---1--0--0--|
D|--------------------------------------------0--|

This is the closest you'll get to the sound of Adam Jones.
The rest is up to YOU!
Comments