Tool - Eon Blue Apocalypse Chords & Tabs

 

Eon Blue Apocalypse Chords & Tabs

Tool Chords & Tabs

Version: 7 Type: Tab 0 ratings
1 star 2 stars 3 stars 4 stars 5 stars
comments

Eon Blue Apocalypse Tab

                               Tool
                       "Eon Blue Apocalypse"
                          CD: Lateralus
                              Track 2
-----------------------------------------------------------------------
This is one of the shortest shorts on the CD, but it is still really
good and easy to play. The whole song uses tremelo picking and delay.

Drop D Tuning (low E tuned down a whole step to D)

Intro Guitar 1 (Tremolo picking w/delay)
--------------
e|-----------------------------------------------------------------
B|-----------------------------------------------------------------
G|-----------------------------------------------------------------
D|-0-0-0-0-0-0-0-0-0-0-0-0-0-0-0-0-0-0-0-0-0-0-0-0-0-0-0-0-0-0-0---
A|-----------------------------------------------------------------
D|-----------------------------------------------------------------
[ Tab from: http://www.guitartabs.cc/tabs/t/tool/eon_blue_apocalypse_tab_ver_7.html ]
Guitar 2 or bass (0:11-0:26)
----------------
e|-------------------------------
B|-------------------------------
G|-------------------------------
D|------------------------------- 
A|-3-5------3-5-----------8--3-5-
D|---------------3-5-------------

(0:30-0:33)
e|---------------------
B|---------------------
G|---------------------
D|--------------------- 
A|--3-5-------0--------
D|-------3-5-----------

Guitar 1 stops tremelo picking the D string now

Guitar 1 (0:40-0:45)
--------
e|-----------------------------
B|-----------------------------
G|-----------------------------
D|--8~-7~---3h5/7-3~----------- 
A|-----------------------------
D|---------------------0-------

(0:48-0:53)
e|-----------------------------
B|-----------------------------
G|-----------------------------
D|--8~-7~---3h5/7-5~----------- 
A|-----------------------------
D|-----------------------------

(0:55-1:03)
e|------------------------------------
B|------------------------------------
G|------------------------------2-----
D|---5--------5-----5-6---------0-----
A|-6---6-5-6-----6-------1-0-1--0-----
D|------------------------------0-----

Any problems or pats on the back, e-mail me at infinite_reason@hotmail.com
Comments