Tool - Eon Blue Apocalypse Chords & Tabs

 

Eon Blue Apocalypse Chords & Tabs

Tool Chords & Tabs

Version: 5 Type: Tab 0 ratings
1 star 2 stars 3 stars 4 stars 5 stars
comments

Eon Blue Apocalypse Tab

   
Dropped-D tuning

pick the high D string very close the bridge, and very quickly, to get a 
tremolo sound. use a delay.

~=tremolo pick
h=hammer on
p=pull off
/=slide

e---------------------------------------------------------------------------
b---------------------------------------------------------------------------
g---------------------------------------------------------------------------
d--0~~~~~~~~~~~~~~~~~~~~~~~~~~~~~~~~~~~~~~~~~~~~~~~~~~~~~~~~~~~~~~~~~~~~~~~~
a--------------h3---h5----------h3---h5-------------------h8--------h3---h5-
d------------------------------------------h3---h5--------------------------
[ Tab from: http://www.guitartabs.cc/tabs/t/tool/eon_blue_apocalypse_tab_ver_5.html ]
e---------------------------------------------------------------------------
b---------------------------------------------------------------------------
g-~~~~~~~~~~~~~~~~~~~~~~--3--p2--2------------------------------------------
d-------------------------------------3/5---5/7--3--------------------------
a---h3---h5-----------------------------------------------------------------
d------------h3--h5---p0------------------------------0---------------------

e---------------------------------------------------------------------------
b------------------------------------------------------------------------3--
g--3--p2--2----------------0--------------------------------------------2---
d--------------3/5---5/7--5-------5---------------5--------------------0----
a------------------------------------6-----6--5--6-----6--5--6--1--0--------
d---------------------------------------------------------------------------

tabbed by drew j


Comments