Tool - Eon Blue Apocalypse Chords & Tabs

 

Eon Blue Apocalypse Chords & Tabs

Tool Chords & Tabs

Version: 4 Type: Tab 0 ratings
1 star 2 stars 3 stars 4 stars 5 stars
comments

Eon Blue Apocalypse Tab

   
#----------------------------------PLEASE NOTE---------------------------------#
#This file is the author's own work and represents their interpretation of the #
#song. You may only use this file for private study, scholarship, or research. #
#------------------------------------------------------------------------------##

                               EON BLUE APOCOLYPSE
                               As recorded by Tool
                         (From the 2001 Album LATERALUS)

Music by Maynard James Keenan, Adam Jones, Danny Carey & Justin Chancellor
Transcribed by Travis Lausch

Gtr I (D A D G B E) - 'Acoustic Guitar'
Gtr II (D A D G B E) - 'Electric Guitar w/clean tone'
Gtr III (D A D G B E) - 'Electric Guitar w/clean tone + reverb'

  Moderately Slow Rock Q=89
  N.C.(Dm)
 4/4                                               3/4
  Gtr I
  TP          TP           TP           TP           TP
  W          +W           +W           +W           +H.
|----------|------------|------------|------------|--------||
|----------|------------|------------|------------|--------||
|----------|------------|------------|------------|--------||
|-0--------|-(0)--------|-(0)--------|-(0)--------|-(0)----||
|----------|------------|------------|------------|--------||
|----------|------------|------------|------------|--------||


 4/4            7/8          4/4             7/8          5/4
   TP             TP           TP              TP           TP     TP
  +W             +H..         +W              +H..         +H     +H.
|--------------|------------|---------------|------------|--------------------|
|--------------|------------|---------------|------------|--------------------|
|--------------|------------|---------------|------------|--------------------|
|-(0)----------|-(0)--------|-(0)-----------|-(0)--------|-(0)----(0)---------|
|--------------|------------|---------------|------------|--------------------|
|--------------|------------|---------------|------------|--------------------|
|
| Gtr II
|  Q   H.        +H..          Q   Q  Q  Q    +H..          H.         Q  Q
|--------------|------------|---------------|------------|--------------------|
|--------------|------------|---------------|------------|--------------------|
|--------------|------------|---------------|------------|--------------------|
|--------------|------------|---------------|------------|--3-----------------|
|--3---5-------|-(5)--------|--3---5--------|------------|-------------3--5---|
|--------------|------------|---------3--5--|-(5)--------|--------------------|

[ Tab from: http://www.guitartabs.cc/tabs/t/tool/eon_blue_apocalypse_tab_ver_4.html ]
                                    H.=H
 7/8          5/4                  4/4
   TP           TP      TP           TP           TP
  +H..         +H      +H.          +W           +W
|------------|--------------------|------------|--------|
|------------|--------------------|------------|--------|
|------------|--------------------|------------|--------|
|-(0)--------|-(0)-----(0)--------|-(0)--------|-(0)----|
|------------|--------------------|------------|--------|
|------------|--------------------|------------|--------|
|
| +H..          Q   Q   Q   Q  Q    +W            W
|------------|--------------------|------------|--------|
|------------|--------------------|------------|--------|
|------------|--------------------|------------|--------|
|------------|--------------------|------------|--------|
|-(5)--------|--3---5-------------|------------|--------|
|------------|----------3---5--0--|-(0)--------|--------|


                Slower Q=61
 4/4                                                 5/4
                Gtr III
                ~~~~~                                    ~~~~~~~
  Q  Q  H       Q  Q   Q    Q     S S S S Q   H       Q  Q   Q    Q    Q
|------------||-----------------|-------------------|------------------------|
|------------||-----------------|-------------------|------------------------|
|------------||-3--2--(2)--(2)--|-------------------|----3---2---(2)--(2)----|
|-0--0--0----||-----------------|-3h5-5s7-3--(3)----|------------------------|
|------------||-----------------|-------------------|------------------------|
|------------||-----------------|-------------------|-0-----(0)--------------|
                                                      H     +H.


                       H.=H
                       N.C.(Eb/Bb)               D5
 6/8                  4/4                       3/4
                       |-3-| |-3-| |-3-| |-3-|
  S S S S S S Q  +E    E E E E E E E E E E E E    H.
|--------------------|-------------------------|--------*|
|--------------------|-------------------------|--------*|
|-------------0--(0)-|---0-------0-------------|-^2-----*|
|-3h5-5s7-3s5-1--(1)-|-1---1-0-1---1-0-1-----0-|-^0-----*|
|--------------------|-------------------1-0---|-^0-----*|
|--------------------|-------------------------|-^0-----*|


Duration Legend
---------------
W - whole; H - half; Q - quarter; E - 8th; S - 16th; T - 32nd; X - 64th; a - acciaccatura
+ - note tied to previous; . - note dotted; .. - note double dotted
Uncapitalized letters represent notes that are staccato (1/2 duration)
Irregular groupings are notated above the duration line
Duration letters will always appear directly above the note/fret number it represents the
duration for.  Duration letters with no fret number below them represent rests.  Multi-
bar rests are notated in the form Wxn, where n is the number of bars to rest for.  Low
melody durations appear below the staff

Tablature Legend
----------------
 h   - hammer-on
 p   - pull-off
 b   - bend
 pb  - pre-bend
 r   - bend release (if no number after the r, then release immediately)
 /\  - slide into or out of (from/to "nowhere")
 s   - legato slide
 S   - shift slide
  - natural harmonic
[n]  - artificial harmonic
n(n) - tapped harmonic
 ~   - vibrato
 tr  - trill
 T   - tap
 TP  - trem. picking
 PM  - palm muting
\n/  - tremolo bar dip; n = amount to dip
 \n  - tremolo bar down
 n/  - tremolo bar up
/n\  - tremolo bar inverted dip
 =   - hold bend; also acts as connecting device for hammers/pulls
   - volume swell (louder/softer)
 x   - on rhythm slash represents muted slash
 o   - on rhythm slash represents single note slash

Misc Legend
-----------
 |  - bar
||  - double bar
||o - repeat start
o|| - repeat end
*|  - double bar (ending)
 :  - bar (freetime)
 $  - Segno
 &  - Coda
Tempo markers -  = BPM(8/16=s8/s16), where s8 = swing 8ths, s16 = swing 16ths


***************************************************************************************
* Generated using Power Tab Editor by Brad Larsen - http://powertab.guitarnetwork.org *
***************************************************************************************
Comments