Tool - Alone Chords & Tabs

 

Alone Chords & Tabs

Tool Chords & Tabs

Version: 1 Type: Tab 0 ratings
1 star 2 stars 3 stars 4 stars 5 stars
comments

Alone Tab

   
ok, this is apparently done by Tool and Creed, so I've put the same
version under Tool as well as Creed cos I really didn't know what to do.
anyway, simple it's:

   Em       G            A        C
|-0-0-0-0--3-3-3-3-3-3--0-0-0-0--0-0-0-0-0-0-
|-0-0-0-0--3-3-3-3-3-3--2-2-2-2--1-1-1-1-1-1-
|-0-0-0-0--0-0-0-0-0-0--2-2-2-2--0-0-0-0-0-0-
|-2-2-2-2--0-0-0-0-0-0--2-2-2-2--2-2-2-2-2-2-
|-2-2-2-2--2-2-2-2-2-2--0-0-0-0--3-3-3-3-3-3-
|-0-0-0-0--3-3-3-3-3-3-----------------------
[ Tab from: http://www.guitartabs.cc/tabs/t/tool/alone_tab.html ]
   Em       G            D/F#     G
|-0-0-0-0--3-3-3-3-3-3--2-2-2-2--3-3-3-3-3-3-
|-0-0-0-0--3-3-3-3-3-3--3-3-3-3--3-3-3-3-3-3-
|-0-0-0-0--0-0-0-0-0-0--2-2-2-2--0-0-0-0-0-0-
|-2-2-2-2--0-0-0-0-0-0--0-0-0-0--0-0-0-0-0-0-
|-2-2-2-2--2-2-2-2-2-2--x-x-x-x--2-2-2-2-2-2-
|-0-0-0-0--3-3-3-3-3-3--2-2-2-2--3-3-3-3-3-3-

for the D/F# chord, play the 2 on the fat E string with your thumb, it's a hell
of a lot easier. those chords are basically played throughout the whole of the
song, and there's a solo that I haven't worked out, but it's not the hardest to
get a rough idea I don't think. for the solo, just try working around the A
pentatonic and should give you the basics of it.
Comments