Tool - 46and Chords & Tabs

 

46and Chords & Tabs

Tool Chords & Tabs

Version: 1 Type: Tab 0 ratings
1 star 2 stars 3 stars 4 stars 5 stars
comments

46and Tab

   
Band=Tool
album=Aenima
song=46 and 2

intro:
bass                 repeatx3
g|---7---5h7---8s7---5h7---3h5-||---7---5h7---8s7----12s11---8s7|
d|-0---0-----0-----0-----0-----||-0---0-----0-----0--------0----|
a|-----------------------------||-------------------------------|
d|-----------------------------||-------------------------------|

[ Tab from: http://www.guitartabs.cc/tabs/t/tool/46and_tab.html ]
guitar
part A
pm............repeatx3..........
e|-------------------||-----------------------------------------|
b|-------------------||-----------------------------3---1----1-3|
g|-------------------||----------------------------2---2--0-2--2|
d|-------------------||-------------0----3----0---0---0--------0|
a|-5---3---6s5---5-5-||-0--1h3------0----3----0-----------------|
D|-------------------||-------------0----3----0-----------------|
                  chorus
e|--------------||------------------------------------|---------|
b|--------------||------------------------------------|---------|
g|--------------||------------------------------------|---------|
d|--------------||-0-12-0-10h12-0-13s12-0-10h12-0-8h10|---------|
a|---10s9-------||-0-12-0-10h12-0-13s12-0-10h12-0-8h10|---------|
D|--------10s12-||-0-12-0-10h12-0-13s12-0-10h12-0-8h10|
          repeatx3
e|---------------|-------------------|   restart from part A    
b|---------------|-------------------|                           
g|---------------|-------------------|                            
d|-12-10-13s12-12|--8h10----0---0---0|                            
a|-12-10-13s12-12|--8h10----0---0---0|                               
D|-12-10-13s12-12|--8h10----0---0---0|                             
Thank you!!
Comments