Tool - 46 And Chords & Tabs

 

46 And Chords & Tabs

Tool Chords & Tabs

Version: 1 Type: Bass Tab 0 ratings
1 star 2 stars 3 stars 4 stars 5 stars
comments

46 And Bass Tab

   
Tuning is drop D from low to high(D,A,D,G)

h= hammer on
p= pull off


Intro 3x

G|-----7----5h7---8p7---5h7---3h5----|
D|-0-----0------0-----0-----0--------|
A|-----------------------------------|
D|-----------------------------------|

|-----7----5h7---8p7---12p11---8p7---|
|-0-----0------0-----0-------0-------|
|------------------------------------|
|------------------------------------|

After that you play...
[ Tab from: http://www.guitartabs.cc/tabs/t/tool/46_and_btab.html ]
|-----7----5h7----8p7---5h7---3h5----|
|-0-----0------0------0-----0--------|
|------------------------------------|
|------------------------------------|

|--7--5----8p7----7---5---8--7-------|
|---------------0---------------0----|
|------------------------------------|
|------------------------------------|

|--7--5----8p7---7---5---8--7----3h5-|
|--------------0---------------0-----|
|------------------------------------|
|------------------------------------|






Comments