Tool - 46 And 2 The Corect Way Chords & Tabs

 

46 And 2 The Corect Way Chords & Tabs

Tool Chords & Tabs

Version: 1 Type: Tab 0 ratings
1 star 2 stars 3 stars 4 stars 5 stars
comments

46 And 2 The Corect Way Tab

46 And 2 by tool

tabbed by Beau welch(lyvvewire@yahoo.com)



I am not sure what effects he uses but here's the intro and melody.



|-------------------------------------------------------------------|
|-------------------------------------------------------------------|
|-------------------------------------------------------------------|
|-------------------------------------------------------------------|
|------------5--------3-------65-----3h5-------1h3-----------------|
|------0----------0-------0--------0--------0--------0--------------|

Here's the other part to that intro:

|-------------------------------------------------------------------|
|-------------------------------------------------------------------|
|-------------------------------------------------------------------|
|-------------------------------------------------------------------|
|-------5-----3-------65------109------3h5-------1h3--------------|
|---0------0------0--------0---------0---------0--------0-----------|

[ Tab from: http://www.guitartabs.cc/tabs/t/tool/46_and_2_the_corect_way_tab.html ]
The fill:
|-------------------------------------------------------------------|
|-------------------------------------------------------------------|
|-------------------------------------------------------------------|
|---------------------------0---------------------------------------|
|---0--3h5---0---75--0-----0---------------------------------------|
|---------------------------0---------------------------------------|


the verse is the same as the intro just repeat the first part 4 times
then play the second once and repeat!


Here are the powercords...:

|-------------------------------------------------------------------|
|-------------------------------------------------------------------|
|-------------------------------------------------------------------|
|--12-----10-----1312----0----10h12---0--8h10----0-----------------|
|--12-----10-----1312----0----10h12---0--8h10----0-----------------|
|--12-----10-----1312----0----10h12---0--8h10----0-----------------|
palm mute and add some distortiona nd here we go.

that's basically it..just over and over with daney carey and there 
ya go.

this should be almost exact.

Comments