Tool - 46 And 2 Chords & Tabs

 

46 And 2 Chords & Tabs

Tool Chords & Tabs

Version: 3 Type: Tab 0 ratings
1 star 2 stars 3 stars 4 stars 5 stars
comments

46 And 2 Tab

   
                                  FORTY SIX & 2
                               As recorded by Tool
                          (From the 1996 Album AENIMA)

Words and Music by Tool


Gtr I (D A D G B E) - 'Overdrive'
Gtr II (D A D G B E) - 'Muted'
Gtr III (D A D G B E) - 'Wah'

 Intro
  Q=80
             D5
 4/4
  Gtr I
              <
  W           W           +W            +W
|----------|-----------|-------------|---------|
|----------|-----------|-------------|---------|
|----------|-----------|-------------|---------|
|----------|-12--------|-(12)--------|-(12)----|
|----------|-12--------|-(12)--------|-(12)----|
|----------|-12--------|-(12)--------|-(12)----|


    Gtr II
    S S S S S S S S S S S S S S S S   S S S S S S S S S S S S S S S S  4x
||----------------------------------|----------------------------------||
||o---------------------------------|---------------------------------o||
||----------------------------------|----------------------------------||
||--0-------1p0---0-------1p0-------|-0-------1p0---0-------1p0--------||
||o-----3-------------3---------1h3-|-----3-------------3---------1h3-o||
||----------------------------------|----------------------------------||


 7/8                           4/4
  Gtr I
  PM--------------------------------------|     PM  PM    PM
  S S S S S S S S S S S S S S   S S S S S S S S S S S S S S S S
|-----------------------------|---------------------------------|
|-----------------------------|---------------------------------|
|-----------------------------|---------------------------------|
|-0-------1p0---0-------1p0---|-0-------1p0---0-------1p0-------|
|-----3-------------3---------|-----3-------------3---------1h3-|
|-----------------------------|---------------------------------|


  D5open                   F5          D5open
   <                        <           <
   W          +W            W           H      Q     Q
|-----------|------------|-----------|--------------------|
|-----------|------------|-----------|--------------------|
|-----------|------------|-----------|--------------------|
|-^0--------|-(0)--------|-^3--------|-^0----------<12>---|
|-^0--------|-(0)--------|-^3--------|-^0----<12>---------|
|-^0--------|-(0)--------|-^3--------|-^0-----------------|


  D5V             Am/D            F               D5open
                                                   <
  PM|             PM|             PM|
  E E Q  +H       E E Q  +H       E E Q  +H        H    S E S Q
|---------------|---------------|---------------|----------------|
|---------------|---------------|---------------|----------------|
|-----7--(7)----|-----5--(5)----|-----5--(5)----|----------------|
|---7-----------|---7-----------|---7-----------|-^0----5p4------|
|-5-------------|-5-------------|-8-------------|-^0--------3h5--|
|---------------|---------------|---------------|-^0-------------|


 Verse
  D5open                   F5          D5open
   <                        <           <
   W          +W            W           H      H
|-----------|------------|-----------|---------------|
|-----------|------------|-----------|---------------|
|-----------|------------|-----------|---------------|
|-^0--------|-(0)--------|-^3--------|-^0----<12>----|
|-^0--------|-(0)--------|-^3--------|-^0-----(0)----|
|-^0--------|-(0)--------|-^3--------|-^0-----(0)----|


  D5V             Am/D            F               D5V
  PM|             PM|             PM|             PM|
  E E Q  +H       E E Q  +H       E E Q  +H       E E Q  +H
|---------------|---------------|---------------|---------------|
|---------------|---------------|---------------|---------------|
|-----7--(7)----|-----5--(5)----|-----5--(5)----|-----7--(7)----|
|---7-----------|---7-----------|---7-----------|---7-----------|
|-5-------------|-5-------------|-8-------------|-5-------------|
|---------------|---------------|---------------|---------------|


    N.C.
    Gtr II
  E  S  +S   +S   S  +E   S  +E   S  +E   S S
|---10-(10)-(10)-10-(10)-10-(10)-10-(10)-10---|
|---10-(10)-(10)-10-(10)-10-(10)-10-(10)-10---|
|---------------------------------------------|
|---------------------------------------------|
|---------------------------------------------|
|---------------------------------------------|


  E  S  +S   +S   S  +E   S  +E   S  +E   S S
|----8--(8)--(8)--8--(8)--8--(8)--8--(8)--8---|
|---10-(10)-(10)-10-(10)-10-(10)-10-(10)-10---|
|---------------------------------------------|
|---------------------------------------------|
|---------------------------------------------|
|---------------------------------------------|


  E S +S  +S  S +E  S +E  S +E  S S   E S +S  +S  S +E  S +E  S +E  S S
|---7-(7)-(7)-7-(7)-7-(7)-7-(7)-7---|---5-(5)-(5)-5-(5)-5-(5)-5-(5)-5---|
|---8-(8)-(8)-8-(8)-8-(8)-8-(8)-8---|---3-(3)-(3)-3-(3)-3-(3)-3-(3)-3---|
|-----------------------------------|-----------------------------------|
|-----------------------------------|-----------------------------------|
|-----------------------------------|-----------------------------------|
|-----------------------------------|-----------------------------------|


  E S +S  +S  S +E  S +E  S +E  S S   E S +S  +S  S +E  S +E  S +E  S S
|-----------------------------------|-----------------------------------|
|-----------------------------------|-----------------------------------|
|---7-(7)-(7)-7-(7)-7-(7)-7-(7)-7---|---5-(5)-(5)-5-(5)-5-(5)-5-(5)-5---|
|---7-(7)-(7)-7-(7)-7-(7)-7-(7)-7---|---7-(7)-(7)-7-(7)-7-(7)-7-(7)-7---|
|-----------------------------------|-----------------------------------|
|-----------------------------------|-----------------------------------|


                                      D5open
                                      Gtr I
                                      <
                                      PM
  E S +S  +S  S +E  S +E  S +E  S S   E E S E S E S S +S  S E
|-----------------------------------|------------------------------||
|-----------------------------------|------------------------------||
|---4-(4)-(4)-4-(4)-4-(4)-4-(4)-4---|---7---7---7---7-(7)---7b7.5r=||
|---5-(5)-(5)-5-(5)-5-(5)-5-(5)-5---|-0---0---0---0-------0--------||
|-----------------------------------|-0----------------------------||
|-----------------------------------|-0----------------------------||


   Chorus
    D5D5en C5 D5   Eb5D5   C5 D5   Bb5
    PM|     PM|     PM|     PM|    PM----
    E  E S  S  S S  S  S S  S  S S S  S
||--------------------------------------|
||o-------------------------------------|
||--------------------------------------|
||--------------------------------------|
||o-0-12---10h12---13p12---10h12---8h10-|
||--0-12---10h12---13p12---10h12---8h10-|


  D5D5en C5 D5   Eb5D5   C5 D5   BbC5
 ---|     PM|     PM|     PM|    PM|
  E  E S  S  S S  S  S S  S  S S S  S
|--------------------------------------||
|-------------------------------------o||
|--------------------------------------||
|--------------------------------------||
|-0-12---10h12---13p12---10h12---8h10-o||
|-0-12---10h12---13p12---10h12---8h10--||


    D5   C5 D5   Eb5D5   C5 D5   BbC5   D5D5en C5 D5   Eb5D5   C5 D5   BbC5
  PM                                    PM
  E  E S  S  S S  S  S S  S  S S S  S   E  E S  S  S S  S  S S  S  S S S  S
|-------------------------------------|--------------------------------------|
|-------------------------------------|--------------------------------------|
|-------------------------------------|--------------------------------------|
|-0-12---10h12---13p12---10h12---8h10-|-0-12---10h12---13p12---10h12---8h10--|
|-0-12---10h12---13p12---10h12---8h10-|-0-12---10h12---13p12---10h12---8h10--|
|-0-12---10h12---13p12---10h12---8h10-|-0-12---10h12---13p12---10h12---8h10--|


  D5D5en C5 D5   Eb5D5   C5 D5   BbC5   D5open
  PM
  E  E S  S  S S  S  S S  S  S S S  S   E E e S S E e Q
|-------------------------------------|------------------||
|-------------------------------------|------------------||
|-------------------------------------|------------------||
|-0-12---10h12---13p12---10h12---8h10-|-0---0---0---0----||
|-0-12---10h12---13p12---10h12---8h10-|-0---0---0---0----||
|-0-12---10h12---13p12---10h12---8h10-|-0---0---0---0----||


   Bridge
    PM--------------------------------------------------------------|
    S S S S S S S S S S S S S S S S   S S S S S S S S S S S S S S S S
||----------------------------------|----------------------------------||
||o---------------------------------|---------------------------------o||
||----------------------------------|----------------------------------||
||--0-------1p0---0-------1p0-------|-0-------1p0---0-------1p0--------||
||o-----3-------------3---------1h3-|-----3-------------3---------1h3-o||
||----------------------------------|----------------------------------||


    PM--------------------------------------------------------------|
    S S S S S S S S S S S S S S S S   S S S S S S S S S S S S S S S S
||----------------------------------|----------------------------------||
||o---------------------------------|---------------------------------o||
||----------------------------------|----------------------------------||
||--0-------1p0---0-------1p0-------|-0-------1p0---0-------1p0--------||
||o-----3-------------3---------1h3-|-----3-------------3---------1h3-o||
||----------------------------------|----------------------------------||


   Verse
    Gtr II
    S S S S S S S S S S S S S S S S   S S S S S S S S S S S S S S S S  3x
||----------------------------------|----------------------------------||
||o---------------------------------|---------------------------------o||
||----------------------------------|----------------------------------||
||--0-------1p0---0-------1p0-------|-0-------1p0---0-------1p0--------||
||o-----3-------------3---------1h3-|-----3-------------3---------1h3-o||
||----------------------------------|----------------------------------||


                                    Gtr I
                                    <
  S S S S S S S S S S S S S S S S   E E S E S E S S +S  S E
|---------------------------------|------------------------------||
|---------------------------------|------------------------------||
|---------------------------------|------------------------------||
|-0-------1p0---0-------1p0-------|------------------------------||
|-----3-------------3---------1h3-|---5---5---5---5-(5)---5b5.5r=||
|---------------------------------|-0---0---0---0-------0--------||


   Chorus
    D5D5opeC5 D5   Eb5D5   C5 D5   BbC5
    PM|     PM|     PM|     PM|    PM----
    E  E S  S  S S  S  S S  S  S S S  S
||--------------------------------------|
||o-------------------------------------|
||--------------------------------------|
||--------------------------------------|
||o-0-12---10h12---13p12---10h12---8h10-|
||--0-12---10h12---13p12---10h12---8h10-|


  D5D5en C5 D5   Eb5D5   C5 D5   BbC5
 ---|     PM|     PM|     PM|    PM|
  E  E S  S  S S  S  S S  S  S S S  S
|--------------------------------------||
|-------------------------------------o||
|--------------------------------------||
|--------------------------------------||
|-0-12---10h12---13p12---10h12---8h10-o||
|-0-12---10h12---13p12---10h12---8h10--||


  D5D5en C5 D5   Eb5D5   C5 D5   BbC5   D5D5en C5 D5   Eb5D5   C5 D5   BbC5
  PM                                    PM
  E  E S  S  S S  S  S S  S  S S S  S   E  E S  S  S S  S  S S  S  S S S  S
|-------------------------------------|--------------------------------------|
|-------------------------------------|--------------------------------------|
|-------------------------------------|--------------------------------------|
|-0-12---10h12---13p12---10h12---8h10-|-0-12---10h12---13p12---10h12---8h10--|
|-0-12---10h12---13p12---10h12---8h10-|-0-12---10h12---13p12---10h12---8h10--|
|-0-12---10h12---13p12---10h12---8h10-|-0-12---10h12---13p12---10h12---8h10--|


  D5D5en C5 D5   Eb5D5   C5 D5   BbC5   D5open
  PM
  E  E S  S  S S  S  S S  S  S S S  S   E E e S S E e Q
|-------------------------------------|------------------|
|-------------------------------------|------------------|
|-------------------------------------|------------------|
|-0-12---10h12---13p12---10h12---8h10-|-0---0---0---0----|
|-0-12---10h12---13p12---10h12---8h10-|-0---0---0---0----|
|-0-12---10h12---13p12---10h12---8h10-|-0---0---0---0----|


   Verse
    G5A5    F5G5  G5A5  F G5G5A5      G5A5    F5G5  G5A5  F5G5G5A5
    PM--------------------------------------------------------------|
    S S S S S S S S S S S S S S S S   S S S S S S S S S S S S S S S S
||----------------------------------|----------------------------------||
||o---------------------------------|---------------------------------o||
||----------------------------------|----------------------------------||
||----------------------------------|----------------------------------||
||o-5h7-----3h5---5h7---3h5-5h7-----|-5h7-----3h5---5h7---3h5-5h7-----o||
||--5h7-0-0-3h5-0-5h7-0-3h5-5h7-0-0-|-5h7-0-0-3h5-0-5h7-0-3h5-5h7-0-0--||


  T T T T T T T T T T T T T T T T T T T T T T T T T T T T T T T T
|------------------------------------------------------------------|
|------------------------------------------------------------------|
|-7-7-7-7-7-7-7-7-7-7-7-7-7-7-7-7-7-7-7-7-7-7-7-7-7-7-7-7-7-7-7-7--|
|------------------------------------------------------------------|
|------------------------------------------------------------------|
|------------------------------------------------------------------|


   T  T  T  T  T  T  T  T  T  T  T  T  T  T  T  T  T  T  T  T  T  T  T  T  T  T  T  T  T  T  T  T
|--------------------------------------------------------------------------------------------------|
|--------------------------------------------------------------------------------------------------|
|-10-10-10-10-10-10-10-10-10-10-10-10-10-10-10-10-10-10-10-10-10-10-10-10-10-10-10-10-10-10-10-10--|
|--------------------------------------------------------------------------------------------------|
|--------------------------------------------------------------------------------------------------|
|--------------------------------------------------------------------------------------------------|


  T T T T T T T T T T T T T T T T T T T T T T T T T T T T T T T T
|------------------------------------------------------------------|
|------------------------------------------------------------------|
|-9-9-9-9-9-9-9-9-9-9-9-9-9-9-9-9-9-9-9-9-9-9-9-9-9-9-9-9-9-9-9-9--|
|------------------------------------------------------------------|
|------------------------------------------------------------------|
|------------------------------------------------------------------|

[ Tab from: http://www.guitartabs.cc/tabs/t/tool/46_and_2_tab_ver_3.html ]
  T T T T T T T T T T T T T T T T T T T T T T T T Q
|---------------------------------------------------------|
|---------------------------------------------------------|
|-8-8-8-8-8-8-8-8-8-8-8-8-8-8-8-8-8-8-8-8-8-8-8-8-8b8.5r==|
|---------------------------------------------------------|
|---------------------------------------------------------|
|---------------------------------------------------------|


    D5openD5V F5                    D5openD5V F5
      PM|             PM--------|     PM|             PM--------|
    E S S E S S +S  E S +S  S S S   E S S E S S +S  E S +S  S S S
||--------------------------------|--------------------------------||
||o-------------------------------|-------------------------------o||
||--------7-7---------------------|-------7-7----------------------||
||--0-----7-7-3-(3)-3-------------|-0-----7-7-3-(3)-3--------------||
||o-0-----5-5-3-(3)-3-3-(3)-3-3h5-|-0-----5-5-3-(3)-3-3-(3)-3-3h5-o||
||--0-0-0-----3-(3)-3-------------|-0-0-0-----3-(3)-3--------------||


   Interlude
   7/8                           4/4
    Gtr I
    PM------------------------------------------------------|
    S S S S S S S S S S S S S S   S S S S S S S S S S S S S S S S
||------------------------------|---------------------------------|
||o-----------------------------|---------------------------------|
||------------------------------|---------------------------------|
||--0-------1p0---0-------1p0---|-0-------1p0---0-------1p0-------|
||o-----3-------------3---------|-----3-------------3---------3---|
||------------------------------|---------------------------------|


 7/8                           4/4
  Gtr II
  S S S S S S S S S S S S S S   S S S S S S S S S S S S S S S S
|-----------------------------|----------------------------------||
|-----------------------------|---------------------------------o||
|-----------------------------|----------------------------------||
|-----------------------------|----------------------------------||
|-5---3---6p5---5---3---6p5---|-5---3---6p5---5---3---6p5---3---o||
|---0---0-----0---0---0-----0-|---0---0-----0---0---0-----0---0--||


 7/8                           4/4
  Gtr I
  PM--------------------------------------------------------|
  S S S S S S S S S S S S S S   S S S S S S S S S S S S S S S S
|-----------------------------|---------------------------------|
|-----------------------------|---------------------------------|
|-----------------------------|---------------------------------|
|-0-------1p0---0-------1p0---|-0-------1p0---0-------1p0-------|
|-----3-------------3---------|-----3-------------3---------3---|
|-----------------------------|---------------------------------|


 7/8
  Gtr II
  S S S S S S S S S S S S S S   S S S S S S S S S S S S S S
|-----------------------------|-----------------------------|
|-----------------------------|-----------------------------|
|-----------------------------|-----------------------------|
|-----------------------------|-----------------------------|
|-5---3---6p5---5---3---6p5---|-5---3---6p5---5---3---6p5---|
|---0---0-----0---0---0-----0-|---0---0-----0---0---0-----0-|


                               4/4
  S S S S S S S S S S S S S S   S S S S S S S S S S S S S S S S
|-----------------------------|----------------------------------|
|-----------------------------|----------------------------------|
|-----------------------------|----------------------------------|
|-----------------------------|----------------------------------|
|-5---3---6p5---5---3---6p5---|-5---3---6p5---5---3---6p5---3----|
|---0---0-----0---0---0-----0-|---0---0-----0---0---0-----0---0--|


  D5 C5 Eb5D5              C5      Eb5D5
 7/8
  Gtr I
   E  E  S  S  +S   S  +S   S  +S   S  E
|----------------------------------------|
|----------------------------------------|
|----------------------------------------|
|----------------------------------------|
|-12-10-13p12-(12)-12-(12)-10-(10)-13p12-|
|-12-10-13p12-(12)-12-(12)-10-(10)-13p12-|


     C5 Eb5D5              C5      Eb5D5
   E  E  S  S  +S   S  +S   S  +S   S  E
|----------------------------------------|
|----------------------------------------|
|----------------------------------------|
|----------------------------------------|
|-12-10-13p12-(12)-12-(12)-10-(10)-13p12-|
|-12-10-13p12-(12)-12-(12)-10-(10)-13p12-|


  D5  C5 Eb5D5              C5      Eb5D5
  Gtr I
   E   E  S  S  +S   S  +S   S  +S   S  E
|------------------------------------------|
|------------------------------------------|
|------------------------------------------|
|------------------------------------------|
|-12--10-13p12-(12)-12-(12)-10-(10)-13p12--|
|-12--10-13p12-(12)-12-(12)-10-(10)-13p12--|
|
| Gtr III
|  <
|  TP
|  H.                                  +E
|------------------------------------------|
|------------------------------------------|
|------------------------------------------|
|--0-----------------------------------(0)-|
|--0-----------------------------------(0)-|
|--0-----------------------------------(0)-|


     C5 Eb5D5              C5      Eb5D5
   E  E  S  S  +S   S  +S   S  +S   S  E
|----------------------------------------|
|----------------------------------------|
|----------------------------------------|
|----------------------------------------|
|-12-10-13p12-(12)-12-(12)-10-(10)-13p12-|
|-12-10-13p12-(12)-12-(12)-10-(10)-13p12-|
|
|  E  E  S  S  +S   S  +S   S  +S   S  E
|----------------------------------------|
|----------------------------------------|
|----------------------------------------|
|----------------------------------------|
|-12-10-13p12-(12)-12-(12)-10-(10)-13p12-|
|-12-10-13p12-(12)-12-(12)-10-(10)-13p12-|


  D5 C5 Eb5D5              C5      Eb5D5
   E  E  S  S  +S   S  +S   S  +S   S  E
|----------------------------------------|
|----------------------------------------|
|----------------------------------------|
|----------------------------------------|
|-12-10-13p12-(12)-12-(12)-10-(10)-13p12-|
|-12-10-13p12-(12)-12-(12)-10-(10)-13p12-|
|
|  E  E  S  S  +S   S  +S   S  +S   S  E
|----------------------------------------|
|----------------------------------------|
|----------------------------------------|
|-12-10-13p12-(12)-12-(12)-10-(10)-13p12-|
|-12-10-13p12-(12)-----------------------|
|----------------------------------------|


  D5 C5 Eb5D5              C5      Eb5D5
   E  E  S  S  +S   S  +S   S  +S   S  E
|----------------------------------------|
|----------------------------------------|
|----------------------------------------|
|----------------------------------------|
|-12-10-13p12-(12)-12-(12)-10-(10)-13p12-|
|-12-10-13p12-(12)-12-(12)-10-(10)-13p12-|
|
|  E  E  S  S  +S   S  +S   S  +S   S  E
|----------------------------------------|
|----------------------------------------|
|----------------------------------------|
|-12-10-13p12-(12)-12-(12)-10-(10)-13p12-|
|-12-10-13p12-(12)-----------------------|
|----------------------------------------|


  D5  C5    Eb5  D5              C5      Eb5D5
   E   E      S   S  +S   S  +S   S  +S   S  E
|----------------------------------------------|
|----------------------------------------------|
|----------------------------------------------|
|----------------------------------------------|
|-12--10-----13p=12-(12)-12-(12)-10-(10)-13p12-|
|-12--10-----13p=12-(12)-12-(12)-10-(10)-13p12-|
|
|  E.     S  +E       E.          S  +E      E
|----------------------------------------------|
|----------------------------------------------|
|----------------------------------------------|
|-12-----10-(10)-----13----------12-(12)----10-|
|----------------------------------------------|
|----------------------------------------------|


          C5   Eb5D5              C5          Eb5D5
    E       E   S  S  +S   S  +S   S  +S       S  E
|---------------------------------------------------||
|---------------------------------------------------||
|---------------------------------------------------||
|---------------------------------------------------||
|--12------10--13p12-(12)-12-(12)-10-(10)-----13p12-||
|--12------10--13p12-(12)-12-(12)-10-(10)-----13p12-||
|
|  +S   S  +E   E.         S  +E       Q
|---------------------------------------------------||
|---------------------------------------------------||
|---------------------------------------------------||
|-(10)-13-(13)-12---------10-(10)-----13b13.5r======||
|---------------------------------------------------||
|---------------------------------------------------||


   Verse
    S S S S S S S S S S S S S S   S S S S S S S S S S S S S S  3x
||------------------------------|------------------------------||
||o-----------------------------|-----------------------------o||
||------------------------------|------------------------------||
||------------------------------|------------------------------||
||o-5---3---6p5---5---3---6p5---|-5---3---6p5---5---3---6p5---o||
||----0---0-----0---0---0-----0-|---0---0-----0---0---0-----0--||
|
|   S S S S S S S S S S S S S S   S S S S S S S S S S S S S S  3x
||------------------------------|------------------------------||
||o-----------------------------|-----------------------------o||
||------------------------------|------------------------------||
||------------------------------|------------------------------||
||o-5---3---6p5---5---3---6p5---|-5---3---6p5---5---3---6p5---o||
||----0---0-----0---0---0-----0-|---0---0-----0---0---0-----0--||


                               4/4
  S S S S S S S S S S S S S S   S S S S S S S S S S S S S S S S
|-----------------------------|----------------------------------||
|-----------------------------|----------------------------------||
|-----------------------------|----------------------------------||
|-----------------------------|----------------------------------||
|-5---3---6p5---5---3---6p5---|-5---3---6p5---5---3---6p5---3----||
|---0---0-----0---0---0-----0-|---0---0-----0---0---0-----0---0--||
|
| S S S S S S S S S S S S S S   S S S S S S S S S S S S S S S S
|-----------------------------|----------------------------------||
|-----------------------------|----------------------------------||
|-----------------------------|----------------------------------||
|-----------------------------|----------------------------------||
|-5---3---6p5---5---3---6p5---|-5---3---6p5---5---3---6p5---3----||
|---0---0-----0---0---0-----0-|---0---0-----0---0---0-----0---0--||


 Fine
  D5 C5 Eb5D5         C5 Eb5D5 BbC5   D5 C5 Eb5D5         C5 Bb5D5 BbC5
  Gtr I
   E  E  S  E  S  +S   E  S  E S  S    E  E  S  E  S  +S   E  S  E S  S
|-----------------------------------|-----------------------------------|
|-----------------------------------|-----------------------------------|
|-----------------------------------|-----------------------------------|
|-12-10-13p12-12-(12)-10-13p12-8h10-|-12-10-13p12-12-(12)-10-13p12-8h10-|
|-12-10-13p12-12-(12)-10-13p12-8h10-|-12-10-13p12-12-(12)-10-13p12-8h10-|
|-12-10-13p12-12-(12)-10-13p12-8h10-|-12-10-13p12-12-(12)-10-13p12-8h10-|


  D5 C5 Eb5D5         C5 Eb5D5 BbC5   D5 C5 Eb5Eb5F5XV    C5 D5      Eb5I
   E  E  S  E  S  +S   E  S  E S  S    E  E  S  E  S  +S   E  S  +S  E.
|-----------------------------------|-----------------------------------|
|-----------------------------------|-----------------------------------|
|-----------------------------------|-----------------------------------|
|-12-10-13p12-12-(12)-10-13p12-8h10-|-12-10-13p12-15-(15)-10h12-(12)-1--|
|-12-10-13p12-12-(12)-10-13p12-8h10-|-12-10-13p12-15-(15)-10h12-(12)-1--|
|-12-10-13p12-12-(12)-10-13p12-8h10-|-12-10-13p12-15-(15)-10h12-(12)-1--|


  D5D5en C5 D5   Eb5D5   C5 D5   BbC5   D5D5en C5 D5   Eb5D5   C5      BbC5
  E  E S  S  S S  S  S S  S  S S S  S   E  E S  S  S S  S  S S  S  S S S  S
|-------------------------------------|--------------------------------------|
|-------------------------------------|--------------------------------------|
|-------------------------------------|--------------------------------------|
|-0-12---10h12---13p12---10h12---8h10-|-0-12---10h12---13p12---10h12---8h10--|
|-0-12---10h12---13p12---10h12---8h10-|-0-12---10h12---13p12---10h12---8h10--|
|-0-12---10h12---13p12---10h12---8h10-|-0-12---10h12---13p12---10h12---8h10--|


  D5D5en C5 D5   Eb5D5   C5 D5   BbC5   D5open
  E  E S  S  S S  S  S S  S  S S S  S   E E e S S E e S e S
|-------------------------------------|---------------------|
|-------------------------------------|---------------------|
|-------------------------------------|---------------------|
|-0-12---10h12---13p12---10h12---8h10-|-0---0---0---0---0---|
|-0-12---10h12---13p12---10h12---8h10-|-0---0---0---0---0---|
|-0-12---10h12---13p12---10h12---8h10-|-0---0---0---0---0---|


  E E E S S E E S E S   E E E S S E E S E S   E E E S S E E Q
|---------------------|---------------------|------------------*|
|---------------------|---------------------|------------------*|
|---------------------|---------------------|------------------*|
|-0---0---0---0---0---|-0---0---0---0---0---|-0---0---0---0----*|
|-0---0---0---0---0---|-0---0---0---0---0---|-0---0---0---0----*|
|-0---0---0---0---0---|-0---0---0---0---0---|-0---0---0---0----*|


Duration Legend
---------------
W - whole; H - half; Q - quarter; E - 8th; S - 16th; T - 32nd; X - 64th; a - acciaccatura
+ - note tied to previous; . - note dotted; .. - note double dotted
Uncapitalized letters represent notes that are staccato (1/2 duration)
Irregular groupings are notated above the duration line
Duration letters will always appear directly above the note/fret number it represents the
duration for.  Duration letters with no fret number below them represent rests.  Multi-
bar rests are notated in the form Wxn, where n is the number of bars to rest for.  Low
melody durations appear below the staff

Tablature Legend
----------------
 h   - hammer-on
 p   - pull-off
 b   - bend
 pb  - pre-bend
 r   - bend release (if no number after the r, then release immediately)
 /\  - slide into or out of (from/to "nowhere")
 s   - legato slide
 S   - shift slide
  - natural harmonic
[n]  - artificial harmonic
n(n) - tapped harmonic
 ~   - vibrato
 tr  - trill
 T   - tap
 TP  - trem. picking
 PM  - palm muting
\n/  - tremolo bar dip; n = amount to dip
 \n  - tremolo bar down
 n/  - tremolo bar up
/n\  - tremolo bar inverted dip
 =   - hold bend; also acts as connecting device for hammers/pulls
 <>  - volume swell (louder/softer)
 x   - on rhythm slash represents muted slash
 o   - on rhythm slash represents single note slash

Misc Legend
-----------
 |  - bar
||  - double bar
||o - repeat start
o|| - repeat end
*|  - double bar (ending)
 :  - bar (freetime)
 $  - Segno
 &  - Coda
Tempo markers -  = BPM(8/16=s8/s16), where s8 = swing 8ths, s16 = swing 16ths
Comments