Tony Iommi - Patterns Chords & Tabs

 

Patterns Chords & Tabs

Tony Iommi Chords & Tabs

Version: 1 Type: Tab 0 ratings
1 star 2 stars 3 stars 4 stars 5 stars
comments

Patterns Tab

   
----------------------------------------------------------------------------

Tuning Info: Tune to C#, Moderate, 112 beats/min. (with 56 beats/min feel)
             4/4 count

Note:  Lyrics may not aligh with music and multiple guitar parts may not
       align due to space constraints.

Opening Keyboard in A then C chords, as for the "scratching", I'm not sure

[f]

 A  C   C  C    D\C  A A   A/C D#  A  C A\G A A
------------------------------------------------------|
------------------------------------------------------|
------------------------------------------------------|
--------------------------------8--7--5-7\5-----------|
-7--10--10-10--12\10-7-7---7/10-6--5--3-5\3-7-7-------|
-5---8---8--8--10\-8-5-5---5/-8-------------5-5-0-3---|

 A  C   C  C    D\C  A A   A/C D#  A  C A\G A A
------------------------------------------------------|
------------------------------------------------------|
------------------------------------------------------|
--------------------------------8--7--5-7\5-----------|
-7--10--10-10--12\10-7-7---7/10-6--5--3-5\3-7-7-------|
-5---8---8--8--10\-8-5-5---5/-8-------------5-5-0-3---|

   GpA GpA    GpA GpA GpA GpA        GpA GpA    GpA/B# A
----------------------------------------------------------|
----------------------------------------------------------|
---5p2-5p2----5p2-5p2-5p2-5p2--------5p2-5p2----5p2/8-7~--|
---5p2-5p2----5p2-5p2-5p2-5p2--------5p2-5p2----5p2/8-7~--|
-0----------0----------------------0----------0-----------|
----------------------------------------------------------|
   i p        i p i p i p i p        i p i p    i p/r i
{....................slight pm..........................}
      Life          is            a        story

   GpA GpA    GpA GpA GpA GpA        GpA GpA    GpA/B# A
----------------------------------------------------------|
----------------------------------------------------------|
---5p2-5p2----5p2-5p2-5p2-5p2--------5p2-5p2----5p2/8-7~--|
---5p2-5p2----5p2-5p2-5p2-5p2--------5p2-5p2----5p2/8-7~--|
-0----------0----------------------0----------0-----------|
----------------------------------------------------------|
   i p        i p i p i p i p        i p i p    i p/r i
{....................slight pm..........................}
 Go    ahead     and      find     your    sight

 A  C   C  C    D\C  A A   A/C D#  A  C A\G A A
------------------------------------------------------|
------------------------------------------------------|
------------------------------------------------------|
--------------------------------8--7--5-7\5-----------|
-7--10--10-10--12\10-7-7---7/10-6--5--3-5\3-7-7-------|
-5---8---8--8--10\-8-5-5---5/-8-------------5-5-0-3---|

   GpA GpA    GpA GpA GpA GpA        GpA GpA    GpA/B# A
----------------------------------------------------------|
----------------------------------------------------------|
---5p2-5p2----5p2-5p2-5p2-5p2--------5p2-5p2----5p2/8-7~--|
---5p2-5p2----5p2-5p2-5p2-5p2--------5p2-5p2----5p2/8-7~--|
-0----------0----------------------0----------0-----------|
----------------------------------------------------------|
   i p        i p i p i p i p        i p i p     i p/r i
{....................slight pm..........................}
 Life         is        your              glory

   GpA GpA    GpA GpA GpA GpA        GpA GpA    GpA
------------------------------------------------------------------------|
------------------------------------------------------------------------|
---5p2-5p2----5p2-5p2-5p2-5p2--------5p2-5p2----5p2---------------------|
---5p2-5p2----5p2-5p2-5p2-5p2--------5p2-5p2----5p2---7-5--5------------|
-0----------0----------------------0----------0----------7--7\5-3-------|
------------------------------------------------------------------0h3/--|
   i p        i p i p i p i p        i p i p    i p
{....................slight pm......................}
Go     ahead       and      live     the      night

CHOUSE

  C   C   C   C D A                    G/
--------------------------------------------|
--------------------------------------------|
--------------------------------------------|
--------------------------------------------|
-10--10--10--10-12-5-----7-6~--6--------5/--|
--8---8---8---8-10-7--5h8-----8--8-5~-0h3/--|
 But to  live  means  to  be here

  C   C   C   C D A                    G/
--------------------------------------------|
--------------------------------------------|
--------------------------------------------|
--------------------------------------------|
-10--10--10--10-12-5-----7-6~--6--------5/--|
--8---8---8---8-10-7--5h8-----8--8-5~-0h3/--|
 In the present, now

  C   C   C  D   E  E  E  E  E  E  E  E  E  E  E  E
------------------------------------------------------|
------------------------------------------------------|
------------------------------------------------------|
------------------------------------------------------|
-10--10--10--12--14-14-14-14-14-14-14-14-14-14-14-14--|
--8---8---8--10--12-12-12-12-12-12-12-12-12-12-12-12--|
 Do try to bow for the gift of your day, then you cede the morning

---------------------------------------------------------------------|
---------------------------------------------------------------------|
-----5---5-------5---5---5--------------5---5------5---8\7p5---5-----|
-----5-7-5-7-----5-7-5-7-5-7(s\3)-------5-7-5-7----5-7-8\7p5-7-5-7---|
-0-0---7---7---0---7---7---7(s\3)---0-0---7---7--0---7-------7---7---|
---------------------------------------------------------------------|
{.........................slight pm...............................}
suuuuuuuuuuu     uuuuuuuuu      uuuuuuu     uuuuuuunnnnnn

---------------------------------------------------------------------|
---------------------------------------------------------------------|
-----5---5-------5---5---5--------------5---5------5---8\7p5---5-----|
-----5-7-5-7-----5-7-5-7-5-7(s\3)-------5-7-5-7----5-7-8\7p5-7-5-7---|
-0-0---7---7---0---7---7---7(s\3)---0-0---7---7--0---7-------7---7---|
---------------------------------------------------------------------|
{.........................slight pm...............................}
suuuuuuuuuuu     uuuuuuuuu      uuuuuuu     uuuuuuunnnnnn

 A  C   C  C    D\C  A A   A/C D#  A  C A\C A A
------------------------------------------------------|
------------------------------------------------------|
------------------------------------------------------|
--------------------------------8--7--5-7\5-----------|
-7--10--10-10--12\10-7-7---7/10-6--5--3-5\3-7-7-------|
-5---8---8--8--10\-8-5-5---5/-8-------------5-5-0-3---|
Pretending that we live doesn't make us alive

   GpA GpA    GpA GpA GpA GpA        GpA GpA    GpA/D# D
----------------------------------------------------------|
----------------------------------------------------------|
---5p2-5p2----5p2-5p2-5p2-5p2--------5p2-5p2----5p2/8-7~--|
---5p2-5p2----5p2-5p2-5p2-5p2--------5p2-5p2----5p2/8-7~--|
-0----------0----------------------0----------0-----------|
----------------------------------------------------------|
{....................slight pm..........................}
 Life          is             a           story,

   GpA GpA    GpA GpA GpA GpA        GpA GpA    GpA
------------------------------------------------------------------------|
------------------------------------------------------------------------|
---5p2-5p2----5p2-5p2-5p2-5p2--------5p2-5p2----5p2---------------------|
---5p2-5p2----5p2-5p2-5p2-5p2--------5p2-5p2----5p2---7-5--5------------|
-0----------0----------------------0----------0----------7--7\5-3-------|
------------------------------------------------------------------0h3/--|
   i p        i p i p i p i p        i p i p    i p
{....................slight pm......................}
 Go    ahead     and      find     your      sight

CHOUSE

  C   C   C   C D A                    G/
--------------------------------------------|
--------------------------------------------|
--------------------------------------------|
--------------------------------------------|
-10--10--10--10-12-5-----7-6~--6--------5/--|
--8---8---8---8-10-7--5h8-----8--8-5~-0h3/--|
{Gutar 1}

--15~~~~~~~~15/17-------------------------|
------------------17~~~~~~~~~~~~~~~~~-----|
------------------------------------------|
------------------------------------------|
------------------------------------------|
------------------------------------------|
{Guitar 2}
 But to  live  means  to  be here

  C   C   C   C D A                    G/
--------------------------------------------|
--------------------------------------------|
--------------------------------------------|
--------------------------------------------|
-10--10--10--10-12-5-----7-6~--6--------5/--|
--8---8---8---8-10-7--5h8-----8--8-5~-0h3/--|
{Guitar 1}

--15~~~~~~~~15/17-------------------------|
------------------17~~~~~~~~~~~~~~~~~-----|
------------------------------------------|
------------------------------------------|
------------------------------------------|
------------------------------------------|
{Guitar 2}
 In the present, now

  C   C   C  D   E  E  E  E  E  E  E  E  E  E  E  E
------------------------------------------------------|
------------------------------------------------------|
------------------------------------------------------|
------------------------------------------------------|
-10--10--10--12--14-14-14-14-14-14-14-14-14-14-14-14--|
--8---8---8--10--12-12-12-12-12-12-12-12-12-12-12-12--|
{Guitar 1}
[ Tab from: http://www.guitartabs.cc/tabs/t/tony_iommi/patterns_tab.html ]
--15~~~~~~~~15/17-------------------------------------|
------------------17~~~~~~~~~~~~~~~~~~~~~~~~~~~~~~~~--|
------------------------------------------------------|
------------------------------------------------------|
------------------------------------------------------|
------------------------------------------------------|
{Guitar 2}
 Do try to bow for the gift of your day, then you cede the morning

---------------------------------------------------------------------------|
---------------------------------------------------------------------------|
-----5---5---------5---5-------5-5----------5---5-------5---8\7p5-x-7-5----|
-----5-7-5-7-------5-7-5-7-x-x-5-5-7--------5-7-5-7-x-x-5-7-8\7p5-x-7-5-7--|
-0-0---7---7---0-0---7---7-x-x-----7----0-0---7---7-x-x---7-------x-----7--|
---------------------------------------------------------------------------|
{.............................slight pm.................................}
{Guitar 1}

-----------------------------------------------------------------------|
-----------------------------------------------------------------------|
--17-19^(21)-17~--17-19^(21)-17-----17-19^(21)-17~--17-19^(21)-17\(12)-|
-------------------------------17~~~---------------------------17\(12)-|
-----------------------------------------------------------------------|
-----------------------------------------------------------------------|
{Guitar 2}
suuuuuuuuuuu     uuuuuuuuu      uuuuuuu     uuuuuuunnnnnn

---------------------------------------------------------------------------|
---------------------------------------------------------------------------|
-----5---5---------5---5-------5-5----------5---5-------5---8\7p5-x-7-5----|
-----5-7-5-7-------5-7-5-7-x-x-5-5-7--------5-7-5-7-x-x-5-7-8\7p5-x-7-5-7--|
-0-0---7---7---0-0---7---7-x-x-----7----0-0---7---7-x-x---7-------x-----7--|
---------------------------------------------------------------------------|
{.............................slight pm.................................}
{Guitar 1}

-----------------------------------------------------------------------|
-----------------------------------------------------------------------|
--17-19^(21)-17~--17-19^(21)-17-----17-19^(21)-17~--17-19^(21)-17\(12)-|
-------------------------------17~~~---------------------------17\(12)-|
-----------------------------------------------------------------------|
-----------------------------------------------------------------------|
{Guitar 2}
suuuuuuuuuuu     uuuuuuuuu      uuuuuuu     uuuuuuunnnnnn

---------------------------------------------------------------------------|
---------------------------------------------------------------------------|
-----5---5---------5---5-------5-5----------5---5-------5---8\7p5-x-7-5----|
-----5-7-5-7-------5-7-5-7-x-x-5-5-7--------5-7-5-7-x-x-5-7-8\7p5-x-7-5-7--|
-0-0---7---7---0-0---7---7-x-x-----7----0-0---7---7-x-x---7-------x-----7--|
---------------------------------------------------------------------------|
{.............................slight pm.................................}
{Guitar 1}

-----------------------------------------------------------------------|
-----------------------------------------------------------------------|
--17-19^(21)-17~--17-19^(21)-17-----17-19^(21)-17~--17-19^(21)-17\(12)-|
-------------------------------17~~~---------------------------17\(12)-|
-----------------------------------------------------------------------|
-----------------------------------------------------------------------|
{Guitar 2}
Pre tending that we see doesn't give us the sight

---------------------------------------------------------------------------|
---------------------------------------------------------------------------|
-----5---5---------5---5-------5-5----------5---5-------5---8\7p5-x-7-5----|
-----5-7-5-7-------5-7-5-7-x-x-5-5-7--------5-7-5-7-x-x-5-7-8\7p5-x-7-5-7--|
-0-0---7---7---0-0---7---7-x-x-----7----0-0---7---7-x-x---7-------x-----7--|
---------------------------------------------------------------------------|
{.............................slight pm.................................}
{Guitar 1}

-----------------------------------------------------------------------|
-----------------------------------------------------------------------|
--17-19^(21)-17~--17-19^(21)-17-----17-19^(21)-17~--17-19^(21)-17\(12)-|
-------------------------------17~~~---------------------------17\(12)-|
-----------------------------------------------------------------------|
-----------------------------------------------------------------------|
{Guitar 2}
Pre tending that we live doesn't make us alive

BRIDGE

 E        Fb  G    A    E       Fb   G    A
-----------------------------------------------|
-----------------------------------------------|
-----------------------------------------------|
-9-------10---12---14---9-------10---12---14---|
-7--------8---10---12---7--------8---10---12---|
-0----------------------0----------------------|
  {Spoken} What is it that makes us lose sight, true sight,
of what is real and essential?

 E        Fb  G    A    E       Fb   G    A
-----------------------------------------------|
-----------------------------------------------|
-----------------------------------------------|
-9-------10---12---14---9-------10---12---14---|
-7--------8---10---12---7--------8---10---12---|
-0----------------------0----------------------|
I'll take organized patterns of chaos over the chaotic organizations of man,
                                                              any day

---------------------------------------------------------------------|
---------------------------------------------------------------------|
-----5---5-------5---5---5--------------5---5------5---8\7p5---5-----|
-----5-7-5-7-----5-7-5-7-5-7(s\3)-------5-7-5-7----5-7-8\7p5-7-5-7---|
-0-0---7---7---0---7---7---7(s\3)---0-0---7---7--0---7-------7---7---|
---------------------------------------------------------------------|
{.........................slight pm...............................}
{Guitar 1}

-----------------------------------------------------------------------|
-----------------------------------------------------------------------|
--17-19^(21)-17~--17-19^(21)-17-----17-19^(21)-17~--17-19^(21)-17\(12)-|
-------------------------------17~~~---------------------------17\(12)-|
-----------------------------------------------------------------------|
-----------------------------------------------------------------------|
{Guitar 2}
Pre tending that we see doesn't give us the sight

---------------------------------------------------------------------|
---------------------------------------------------------------------|
-----5---5-------5---5---5--------------5---5------5---8\7p5---5-----|
-----5-7-5-7-----5-7-5-7-5-7(s\3)-------5-7-5-7----5-7-8\7p5-7-5-7---|
-0-0---7---7---0---7---7---7(s\3)---0-0---7---7--0---7-------7---7---|
---------------------------------------------------------------------|
{.........................slight pm...............................}
{Guitar 1}

-----------------------------------------------------------------------|
-----------------------------------------------------------------------|
--17-19^(21)-17~--17-19^(21)-17-----17-19^(21)-17~--17-19^(21)-17\(12)-|
-------------------------------17~~~---------------------------17\(12)-|
-----------------------------------------------------------------------|
-----------------------------------------------------------------------|
{Guitar 2}
Pre tending that we live doesn't make us alive

---------------------------------------------------------------------|
---------------------------------------------------------------------|
-----5---5-------5---5---5--------------5---5------5---8\7p5---5-----|
-----5-7-5-7-----5-7-5-7-5-7(s\3)-------5-7-5-7----5-7-8\7p5-7-5-7---|
-0-0---7---7---0---7---7---7(s\3)---0-0---7---7--0---7-------7---7---|
---------------------------------------------------------------------|
{.........................slight pm...............................}
{Guitar 1}

-----------------------------------------------------------------------|
-----------------------------------------------------------------------|
--17-19^(21)-17~--17-19^(21)-17-----17-19^(21)-17~--17-19^(21)-17\(12)-|
-------------------------------17~~~---------------------------17\(12)-|
-----------------------------------------------------------------------|
-----------------------------------------------------------------------|
{Guitar 2}
Pre tending that we see doesn't give us the sight
The Patterns in the carpet do add up though, you don't have to count

---------------------------------------------------------------------|
---------------------------------------------------------------------|
-----5---5-------5---5---5--------------5---5------5---8\7p5---5-----|
-----5-7-5-7-----5-7-5-7-5-7(s\3)-------5-7-5-7----5-7-8\7p5-7-5-7---|
-0-0---7---7---0---7---7---7(s\3)---0-0---7---7--0---7-------7---7---|
---------------------------------------------------------------------|
{.........................slight pm...............................}
{Guitar 1}

-----------------------------------------------------------------------|
-----------------------------------------------------------------------|
--17-19^(21)-17~--17-19^(21)-17-----17-19^(21)-17~--17-19^(21)-17\(12)-|
-------------------------------17~~~---------------------------17\(12)-|
-----------------------------------------------------------------------|
-----------------------------------------------------------------------|
{Guitar 2}
Pre tending that we live doesn't make us alive
The Patterns in the carpet do add up though, you don't have to count

 A  C   C  C    D\C  A A   A/C D#  A  C A\G A A
------------------------------------------------------|
------------------------------------------------------|
------------------------------------------------------|
--------------------------------8--7--5-7\5-----------|
-7--10--10-10--12\10-7-7---7/10-6--5--3-5\3-7-7-------|
-5---8---8--8--10\-8-5-5---5/-8-------------5-5-0-3---|

 A  C   C  C    D\C  A A   A/C D#  A  C A\G A A     A A
--------------------------------------------------------|
--------------------------------------------------------|
--------------------------------------------------------|
--------------------------------8--7--5-7\5-------------|
-7--10--10-10--12\10-7-7---7/10-6--5--3-5\3-7-7-----7-7-|
-5---8---8--8--10\-8-5-5---5/-8-------------5-5-3p0-5-5-|
Comments