Tonic - You Wanted More Chords & Tabs

 

You Wanted More Chords & Tabs

Tonic Chords & Tabs

Version: 3 Type: Tab 0 ratings
1 star 2 stars 3 stars 4 stars 5 stars
comments

You Wanted More Tab

#----------------------------------PLEASE NOTE--------------------------------#
   #This file is the author's own work and represents their interpretation of the#
   #song. You may only use this file for private study, scholarship, or research.#
   #-----------------------------------------------------------------------------#
   #-- File created with Instab - http://www.pconline.com/~smcarey/instab.html --#
   #-----------------------------------------------------------------------------#

   Author/Artist: Tonic
   Title: You wanted More
   Album: American Pie Sndtrk.
   Transcribed by: JaY
   Email: xell44@aol.com

   this IS the right way to play it!!!!!! Capo on 2nd ---look at the tuning
   *intro*
   D|----------------------------------------------------------------------------
   B|----------------------------------------------------------------------------
   G|----------------------------------------------------------------------------
   D|----------------------------------------------------------------------------
   A|-------5-----5-7---------5-----5-7-x-5-7------------------------------------
   D|-0-5-7---7p0-5-7---0-5-7---7p0-5-7-x-5-7------------------------------------

   Love Is Tragic Love Is Bold You Will ALways Do What You Are Told 
   Love Is Hard Love Is Strong You Will Never Say That You Were Wrong
   D|-0------0---0---------------------------------------------------------------
   B|-1------0---1---------------------------------------------------------------
   G|-2------0---0---------------------------------------------------------------
   D|-2--------------------------------------------------------------------------
   A|-0----------------------5-----5-7---------5-----5-7-x-5-7-------------------
   D|------------------0-5-7---7p0-5-7---0-5-7---7p0-5-7-x-5-7-------------------
[ Tab from: http://www.guitartabs.cc/tabs/t/tonic/you_wanted_more_tab_ver_3.html ]
   I Don't Know When I Got Bitter But Love Is Surely Better When It's Gone
   D|-0-----0---0----------------------------------------------------------------
   B|-1-----0---1----------------------------------------------------------------
   G|-2-----0---0----------------------------------------------------------------
   D|-2--------------------------------------------------------------------------
   A|-0---------------------3-----3-5--------------------------------------------
   D|-----------------0-3-5---5p0-3-5--------------------------------------------

   'Cause You Wanted More More Than I could Give More than I could handle 
   In a life that I can't live 
   You wanted more More than I could bear More than I could offer For a love that
   isn't there

   D|--------------------------0---0----0-----0----------------------------------
   B|--------------------------1---0----1-----0----------------------------------
   G|--------------------------0---0----0-----0----------------------------------
   D|--------------------------2---x----x-----x----------------------------------
   A|-------3-----3-5-x-3-5----3---5----3-----5----------------------------------
   D|-0-3-5---5p0-3-5-x-3-5--------5----3-----5----------------------------------

   I got to pick me up when I am down 
   I got to get my feet back on the ground I got to pick me up when I am down
   D|-0---0----0-----------------------------------------------------------------
   B|-1---1----0-----------------------------------------------------------------
   G|-0---2----0-----------------------------------------------------------------
   D|-x---2----x-----------------------------------------------------------------
   A|-3---0--3/5-----------------------------------------------------------------
   D|-3------3/5-----------------------------------------------------------------
   Love Is Tragic
   Love Is Bold
   You Will ALways Do What You Are Told
   Love Is Hard
   Love Is Strong
   You Will Never Say That You Were Wrong
   I Don't Know When I Got Bitter
   But Love Is Surely Better When It's Gone

   'Cause You Wanted More
   More Than I could Give
   More than I could handle
   In a life that I can't live
   You wanted more
   More than I could bear
   More than I could offer
   For a love that isn't there

   Love is color
   Love is loud
   Love is never saying that you're too proud
   Love is trusting 
   Love is honest
   Love is not a hand to hold you down
   I don't know when I got bitter
   But love is surely better when it's gone

   (Chorus)

   I got to pick me up when I am down
   I got to get my feet back on the ground
   I got to pick me up when I am down

   (Chorus)
Comments