Tonic - You Wanted More Chords & Tabs

 

You Wanted More Chords & Tabs

Tonic Chords & Tabs

Version: 2 Type: Tab 0 ratings
1 star 2 stars 3 stars 4 stars 5 stars
comments

You Wanted More Tab

   
T1: Rich Massey, RichMassey@FirstUSA.com, Tonic, You Wanted More, 01/06/99 

   S1: CAPO 2nd Fret ; Drop D Tuning ; TAB/Frets realative to Capo., Opening Riff:

   E--------------------------------------------------------------------------- 
   B--------------------------------------------------------------------------- 
   G--------------------------------------------------------------------------- 
   D--------------------------------------------------------------------------- 
   A---------5------5--7------------5------5--7--5--7-------------------------- 
   D---0-5-7---7p0--5--7------0-5-7---7p0--5--7--5--7-------------------------- 

   Verse Part 1 (2x) 
   Am Love is blah blah G/? Love Blah Blah (Opening Riff) 
   E-------0--------------------------0-----0---------------------------------- 
   B-------1--------------------------0-----1---------------------------------- 
   G-------2--------------------------0-----0---------------------------------- 
   D-------2------------------------------------------------------------------- 
   A-------0-----------------------------------------------------5------5--7--- 
   D-------------------------------------------------------0-5-7---7p0--5--7--- 
[ Tab from: http://www.guitartabs.cc/tabs/t/tonic/you_wanted_more_tab_ver_2.html ]
   Verse Part 2 (1x) (Pre Chorus) 
   Am Something... Bitter... G/? Intro Chorus: 
   E-------0--------------------------0-----0----------------------------------- 
   B-------1--------------------------0-----1----------------------------------- 
   G-------2--------------------------0-----0----------------------------------- 
   D-------2-------------------------------------------------------------------- 
   A-------0------------------------------------------------------3-----3-5--5-5 
   D--------------------------------------------------------0-3-5---5p0-3-5--3-3 


   Chorus: 
   Cause You Wanted More...Cadd9 G5 F A5 G5 (Opening Riff (2x)) 
   E-----------------------------0--------x----0------x-----x---------------------

   B-----------------------------1--------x----1------x-----x---------------------

   G-----------------------------0--------x----0------x-----x---------------------

   D-----------------------------2--------x----x------3-----5---------------------

   A--------3------3-5--5-5------3--------5----3------3-----5---------------------

   D--0-3-5---5p0--3-5--3-3---------------5----3------3-----5---------------------


   Bridge: F Am G F Am G... Listen to it. 

   That's all. Questions or Comments to whocares@idont.com 
Comments