Tonic - Knock Down Walls Chords & Tabs

 

Knock Down Walls Chords & Tabs

Tonic Chords & Tabs

Version: 1 Type: Tab 0 ratings
1 star 2 stars 3 stars 4 stars 5 stars
comments

Knock Down Walls Tab

   
Tonic - "Knock Down Walls"

Capo II

Intro
Guitar 1:
Em G C D

Guitar 2:
|------------------------------------------|
|------12-12-12------12-12-12-----12-------|
|--/12-----------/12----------/12-----/12--|
|-------------------------------------/12--|
|------------------------------------------|
|------------------------------------------|

=======================================================================
Verse
Guitar 1:
Palm mute
Em C G D

Guitar 2:
Palm mute
Em C G D

and, periodically...

|-------------|				|-----------|
|-------------|				|-----------|
|-------------|		and		|--------4--|
|--4h5-4h5-2--|				|--4^-4^----|
|-------------|				|-----------|
|-------------|				|-----------|



Second verse
Guitar 1:
Same

Guitar 2:
"Somethin' tells 'em..."
|-----0---0---0---0---5-----5----|
|--/5---5---5---5---8---8-7---7--|
|--------------------------------|
|--------------------------------|
|--------------------------------|
|--------------------------------|

|-----0---0---0---0----7------5----|
|--/5---5---5---5---10---10-8---8--|
|----------------------------------|
|----------------------------------|
|----------------------------------|
|----------------------------------|
[ Tab from: http://www.guitartabs.cc/tabs/t/tonic/knock_down_walls_tab.html ]
=======================================================================
Chorus
Guitar 1:
Em G C D

Guitar 2:
|------------------------------------------|
|------12-12-12------12-12-12-----12-------|
|--/12-----------/12----------/12-----/12--|
|-------------------------------------/12--|
|------------------------------------------|
|------------------------------------------|

=======================================================================
Bridge
Both guitars:
   E  F# G  C
|--------------|
|--------------|
|--1--------5--|
|--2--4--5--5--|
|--2--4--5--3--|
|--0--2--3-----|

=======================================================================
Solo
Guitar 1:
Em G C D

Guitar 2:
|--------------------------------------------|
|--5^----------------------------------------|
|--5^-3-5-3-5^-5po3---3-----------------5----|
|-------------------5---5--5-3----------5----|
|------------------------------5--5-6-7---7--|
|--------------------------------------------|

|----------------------------------------------------------|
|--12^-----------------------------------------------------|
|--12^-10-12-10-12^-12po10----10---------------------------|
|--------------------------12----12--12-10-7--7-8-9--7-9\--|
|----------------------------------------------------------|
|----------------------------------------------------------|
Comments