Tonic - If You Could Only See Chords & Tabs

 

If You Could Only See Chords & Tabs

Tonic Chords & Tabs

Version: 1 Type: Bass Tab 0 ratings
1 star 2 stars 3 stars 4 stars 5 stars
comments

If You Could Only See Bass Tab

   
IF YOU COULD ONLY SEE NAME - Tonic
-----------------------------------------------------------------------Tabbed By: JScott
E-mail: penobypost@hotmail.com	

Tuning: Standard (Although guitar uses a Capo on the 1st fret)
Intro (Comes in after guitar and vocals after first verse)
intro(:34)/chorus/out  
G|--------------------------------------------------------------------|
D|--------------------------------------------------------------------|
A|1--4----------------------------------------------------------------|
E|-----4--24---------------------------------------------------------|
[ Tab from: http://www.guitartabs.cc/tabs/t/tonic/if_you_could_only_see_btab.html ]
Verses (Timing Is Everything, Listen To The Song)
(1)Well you Got Your Reasons
(2)See the Road Less Traveled
G|--------------------------------------------------------------------|
D|--------------------------------------------------------------------|
A|-----------------------------------------5555-----------------------|
E|4-6666--4-66664-6666-4-6666-2-2222-2222----------------------------|

Bridge 
G|--------------------------------------------------------------------|
D|--------------------------------------------------------------------|
A|----------11--------------------------------------------------------|
E|11-2--44------------------------------------------------------------|

Awesome song.  

| /  slide up
| \  slide down
| h  hammer-on
| p  pull-off
| ~  vibrato
| +  harmonic
| x  Mute note

===============================================================================
Comments