Tonic - Flower Man Chords & Tabs

 

Flower Man Chords & Tabs

Tonic Chords & Tabs

Version: 1 Type: Tab 0 ratings
1 star 2 stars 3 stars 4 stars 5 stars
comments

Flower Man Tab

Tonic -- "Flower Man" -- X-Files Soundtrack

Tabbed by: Kyle Holcombe

Tuning: Standard

This is a cool song.  No solo, but what I have here is fairly correct...give or 
take a few extra notes that don't really make a difference either way.  
E-mail any comments/suggestions/death threats to kyle_gumby@hotmail.com

Verses:
|--------------|
|--------------|
|--2-2---------|
|--2-2---------|
|--0-0--0-2-3--|
[ Tab from: http://www.guitartabs.cc/tabs/t/tonic/flower_man_tab.html ]
Chorus:
|--3--2--3--|
|--3--3--3--|
|--0--2--0--|
|--0--0--2--|
|--2-----3--|
|--3-----x--|

Bridge:
|--------------------------------------------------|
|--------------------------------------------------|
|------0---------0---------0-----------0-----0-----|
|----0---------0---------0-----------0-----0-------|
|--2-----3---2-----3---2-----3---3-2-----3---------|
|----------------------------------------------3---|
Just play around with that...the timing's different at the end...you'll get it.


Play the chorus behind the solo...sorry, don't have it yet, but I'm working on it.
Comments