Toni Braxton - Unbreak My Heart Chords & Tabs

 

Unbreak My Heart Chords & Tabs

Toni Braxton Chords & Tabs

Version: 2 Type: Tab 0 ratings
1 star 2 stars 3 stars 4 stars 5 stars
comments

Unbreak My Heart Tab

   
I love this song, and it sounds great!!
If you also have a good voice and can sing, it will get you laid ;P

No seriously, i thought I'd make this one as i haven't seen one
in more detail anywhere. Hope you like it!

Toni Braxton - Unbreak My Heart
by jX

Standard tuning
Fm [244322]
Bm [x24432]
A  [x02220]
Dm [xx0231]

Intro
                                      |Fm "Slow strum"
e---------------------------------------------3--------|
B-----------------7-8-7------2---------------3---------|
G--3-4-6-7--7-7-9-------7-9----4-2-4--------2----------|
D-----------------------------------------4------------|
A---------------------------------------4--------------|
E-------------------------------------2----------------|

Verse

   |Bm                     |A
e---------------------------------------------------------|
B--------3----3----3----3--------2----2----2-2h3p2-0------|
G------4----4----0----0--------2----2----2-----------2----|
D----4----4----4----4--------2----2----2------------------|
A--2-----------------------0------------------------------|
E---------------------------------------------------------|

e---------------------0-----------------------2-------------|
B--------3----3----3----3-------2-----2-----2---------------|
G------4----4----0------------2-----2-----2-----------------|
D----4----4----4----4-------2-----2-----2-------------------|
A--2----------------------0---------------------------------|
E-----------------------------------------------------------|

e----------------------2-0-----------------------------------|
B--------3-----------3-----3---------2----2----2-3-2h3p2-0---|
G------4--4--------4---------4-----2----2----2-------------2-|
D----4-----------4---------------2----2----2-----------------|
A--2--------2-2----------------0-----------------------------|
E------------------------------------------------------------|
[ Tab from: http://www.guitartabs.cc/tabs/t/toni_braxton/unbreak_my_heart_tab_ver_2.html ]
e---------------------0-----------------------0---|
B--------3----3----3----3-------2-----2-----2-----|
G------4----4----0------------2-----2-----2-------|
D----4----4----4----4-------2-----2-----2---------|
A--2----------------------0-----------------------|
E-------------------------------------------------|

Chorus
  |Dm             |Gm             |C             |A
e--------1-1-0-----------3--------------0---------------0---------|
B------3-------3-------3---3---3----------1---1-----------2---2---|
G----2-----------2---3-------3--------0-----0---------2-----2-----|
D--0---------------0----------------2---------------2-------------|
A---------------------------------3---------------0---------------|
E-----------------------------------------------------------------| X2

e--------1-1-0h1p0-----------3--------------0---------------0---------|
B------3-----------3-------3---3---3----------1---1-----------2---2---|
G----2---------------2---3-------3--3-----0-----0---0-----2-----2---2-|
D--0-------------------0----------------2---------------2-------------|
A-------------------------------------3---------------0---------------|
E---------------------------------------------------------------------|

e--------1-1-0-----------3--------------0---------------0---------|
B------3-------3-------3---3---3----------1---1-----------2---2---|
G----2-----------2---3-------3--------0-----0---------2-----2-----|
D--0---------------0----------------2---------------2-------------|
A---------------------------------3---------------0---------------|
E-----------------------------------------------------------------|

  |Dm         |Gm          |A
e--------1----------3---------------0-----------------------------|
B------3----3-----3---3-----------2---2----2----------------------|
G----2----------3-------3-------2------------2--------------------|
D--0----------0---------------2-----------------------------------|
A---------------------------0-------------------------------------|
E-----------------------------------------------------------------|

Verse

Scroll up

This isn't 100% correct, but I'm confident it's well within the 90-98%
Hope you like it and appreciate the time i used to make this :)

Signing off//-
jX
Comments