Toni Braxton - Spanish Guitar Chords & Tabs

 

Spanish Guitar Chords & Tabs

Toni Braxton Chords & Tabs

Version: 2 Type: Tab 0 ratings
1 star 2 stars 3 stars 4 stars 5 stars
comments

Spanish Guitar Tab

the intro submitted wasnt good enough, i tried to figure it out myself, hope you can 
it,
AIR.

[ Tab from: http://www.guitartabs.cc/tabs/t/toni_braxton/spanish_guitar_tab_ver_2.html ]
----1--0-1-3-1-0-1-0---------------------------------|
---3----------------------1-0---0-1-3-1-0-3-1-0----1-|
--2-----------------------------------------------2--|
-0----------------------0------------------------2---|
----------------------2-------------------------0----|
--------------------3--------------------------------|

-7-8-10-8-7---------------00-0-----------------------|
------------8-------------00-0-----------------------|
--------------9\\\-0------00-0-----------------------|
--------------------------22-2-----------------------|
--------------------------22-2-----------------------|
--------------------------00-0-----------------------|
Comments