Tomte - Wilhelm Das War Nichts Chords & Tabs

 

Wilhelm Das War Nichts Chords & Tabs

Tomte Chords & Tabs

Version: 1 Type: Tab 0 ratings
1 star 2 stars 3 stars 4 stars 5 stars
comments

Wilhelm Das War Nichts Tab

   
Tomte - Wilhelm das war nichts

Stimmung: 	D A D G B E
		(= normaler D-Drop)

Die Akkorde sind beliebig benannt, nämlich nach zahlen der Bümde (bei refrain und mittelpt...) 
ich weiss nicht, wie sie heissen,ich denke jedoch, selbst wenn ich es wüsste, 
tät es nicht viel zur sache, da sie
vermutlich arg fremd wären (Esus2add6/F#) ......

die voraussetzung, diese tabulatur zu verstehen, ist das lied zu kennen..
ich weiss sie ist ziemlich unübersichtlich, dennoch hoffe ich, man gewinnt
einen durchblick

------------------------------------------------------------------------

Akkorde:

[riff]	|-------------------------------------|
strophe	|-------------------------------------|
wie im	|-6--6--6--6-8-8--8--8-6-6-6----------|
lied	|-6--6--6--6-6-6--6--6-6-6-6----------|
abge-	|-4--4--4--4-4-4--4--4-4-4-4----------|
stockt	|-------------------------------------|

	| strophe    | refrain	        | mittelpt.              |
akkorde | E    A     |   4 |  11  |  9  |   7  |  9  | 11  | 14  |	
	|            |     |      |     |      |     |     |     |
	|------------|---0-|---0--|--0--|---0--|--0--|--0--|--0--|
	|-----(0h)2--|---0-|---0--|--0--|---0--|--0--|--0--|--0--|
	|--1-----2---|---6-|--13--|-11--|---9--|-11--|-13--|-16--|
	|--2-----2---|---4-|--11--|--9--|---7--|--9--|-11--|-14--|
	|--2-----0---|---4-|--11--|--9--|---7--|--9--|-11--|-14--|
	|--2---------|---4-|--11--|--9--|---7--|--9--|-11--|-14--|

------------------------------------------------------------------------
------------------------------------------------------------------------

intro:

|-0--0--0--0-0-0--0--0--0-0-0--0--0--0-0-0--0--0--0-0---|
|-0--0--0--0-0-0--0--0--0-0-0--0--0--0-0-0--0--0--0-0---|
|-6--6--6--6-4-6--6--6--6-4-6--6--6--6-4-6--6--6--6-4---|
|-6--6--6--6-6-6--6--6--6-6-6--6--6--6-6-6--6--6--6-6---|
|-4--4--4--4-4-4--4--4--4-4-4--4--4--4-4-4--4--4--4-4---|
|-------------------------------------------------------|

------------------------------------------------------------------------

[riff]               E               A
	Wilhelm, das war nichts, Du kannst doch nicht glauben, 
[riff]                         E        A 
	dass sie dich wirklich mag, Ich schlafe nur noch                 
[ Tab from: http://www.guitartabs.cc/tabs/t/tomte/wilhelm_das_war_nichts_tab.html ]
[riff]                     E                A               
4 Stunden pro Tag, und die restlichen 20 verbringe ich damit
[riff]                                        E           A
	zu denken an die Sachen die ich nicht hab.
------------------------------------------------------------------------
4                 11    9   
	Halt mich fest, während ich versuche
4                  11           9 
	mich unkenntlich und unsterblich zu lieben
4                 11    9   
	Halt mich fest, während ich versuche
4                  11           9     
	mich unkenntlich und unsterblich zu lieben
------------------------------------------------------------------------
[riff]                 E           A           
                                         zu lieben
[riff]                 E           A  

[riff]                 E           A  
	Eine Liebe zur Musik, eine Liebe zu den Tönen
[riff]                 E           A
	L.Y.B.E.
[riff]                       E                   A      
	Ich erinnere mich an Konzerte, die schon lange zu Ende sind
[riff]                           E                    A                     
	Zum Beispiel S.N.F.U. in Gießen, Zum Beispiel Van Pelt in der Wingst

------------------------------------------------------------------------
4                 11    9   
	Halt mich fest, während ich versuche
4                   11           9 
	mich unkenntlich und unsterblich zu lieben
4                 11    9   
	Halt mich fest, während ich versuche
4                   11           9         
	mich unkenntlich und unsterblich zu
------------------------------------------------------------------------
mittelpart: akkorde nur durchklingen lassen.

7	      (7)         7           7    9
lieben
11             11         11         11    9

7	       7          7           7    9

11             11         11         11    14

7	       7	  7	      7    9    
	  Eine Liebe zur Musik, eine Liebe zu den 
11             11         11         11    9         
Tönen ... Eine Liebe zur Musik, eine Liebe zu den 
7              7	  7           7    9 
Tönen ... Eine Liebe zur Musik, eine Liebe zu den
11             11         11         11    9 
Tönen ... Eine Liebe zur Musik, eine Liebe zur Musik

------------------------------------------------------------------------
4                 11    9   
	Halt mich fest, während ich versuche
4                   11           9 
	mich unkenntlich und unsterblich zu lieben
4                 11    9   
	Halt mich fest, während ich versuche
4                   11           9         
	mich unkenntlich und unsterblich zu
4                   11           9     
4                   11           9     
4                   11           9     
4                   11           9     
------------------------------------------------------------------------
------------------------------------------------------------------------
wenn man mir schreiben mag usw:
benny: 
der.schoenste.tag@gmx.net
------------------------------------------------------------------------
Comments