Tomte - Theestube Chords & Tabs

 

Theestube Chords & Tabs

Tomte Chords & Tabs

Version: 1 Type: Tab 0 ratings
1 star 2 stars 3 stars 4 stars 5 stars
comments

Theestube Tab

   
Tomte - Theestube

Stimmung: 	E A E A B E
		(ich empfehle die gitarre wie folgt zu stimmen
		und das capo auf den 3. Bund zu legen, und das
		reißen der saiten zu vermeiden:
		D G D G A D  -  capo 2

Die Akkorde sind beliebig benannt.. ich weiss nicht, wie sie heissen,
ich denke jedoch, selbst wenn ich es wüsste, tät es nicht viel zur sache, da sie
vermutlich arg fremd wären (Esus2add6/F#) ......

------------------------------------------------------------------------
[intro 2x]

|-------------||-------------||-------------||-------------|
|-5--2--0--22-||-5--2--0--22-||-5--2--0--22-||-5--2--0--22-|
|-0--0--0--00-||-0--0--0--00-||-0--0--0--00-||-0--0--0--00-|
|-0--0--0--00-||-0--0--0--00-||-0--0--0--00-||-0--0--0--00-|
|-------------||-------------||-------------||-------------|
|-------------||-------------||-------------||-------------|


|-------0-------0-------0-------0----|
|-------0-------0-------0-------0----|
|-------0-------0-------0-------0----|
|-------5-------5-------5-------5----|
|---4-4-4-4-4-4-4-4-4-4-4-4-4-4-4----|
|-0-2-2---2-2-2---2-2-2---2-2-2------|

------------------------------------------------------------------------
[Verse]

|-------------||-------------||-------------||-------------|
|-5--2--0--22-||-5--2--0--22-||-5--2--0--22-||-5--2--0--22-|
|-0--0--0--00-||-0--0--0--00-||-0--0--0--00-||-0--0--0--00-|
|-0--0--0--00-||-0--0--0--00-||-0--0--0--00-||-0--0--0--00-|
|-------------||-------------||-------------||-------------|
|-------------||-------------||-------------||-------------|

1) ich war unten mit den königen und sie haben mir
2) ich war oben auf dem meer denn dummheit schwimmt bekanntlich
3) Es war alles klar und sonderbar mit mächtig viel 
4) und so lange wir zu kaufen sind bestehe ich aus
|-------0-------0-------0-------0----|
|-------0-------0-------0-------0----|
|-------0-------0-------0-------0----|
|-------5-------5-------5-------5----|
|---4-4-4-4-4-4-4-4-4-4-4-4-4-4-4----|
|-0-2-2---2-2-2---2-2-2---2-2-2------|

1) gefallen
2) oben
3) verrat gepaar
4) gold

------------------------------------------------------------------------
[Chorus]

|----------------------------------|
|----------------------------------|
|----------------------------------|
|-----4-------4-------5-------5----|
|-2-2-2-2-2-2-2---4-4-4-4-4-4-4----|
|-0-0-0-0-0-0-0-0-2-2-2-2-2-2-2----|
[ Tab from: http://www.guitartabs.cc/tabs/t/tomte/theestube_tab.html ]
1) ich glaub ich brauche eine pause
2) es ist ein langer weg nachhause
3) es muss schwierig sein, mich zu verstehen


|--------------------------------------------------|
|--------------------------------------------------|
|--------------------------------------------------|
|-----11-------11-------9-------9-------9-------9--|
|-9-9--9-9-9-9--9-9-7-7-7-7-7-7-7-7-7-7-7-7-7-7-7--|
|-7-7--7-7-7-7--7-7-5-5-5-5-5-5-5-5-5-5-5-5-5-5-5--|
4) warum ich mich gut mit thees versteh'

------------------------------------------------------------------------

[Verse]

|-------------||-------------||-------------||-------------|
|-5--2--0--22-||-5--2--0--22-||-5--2--0--22-||-5--2--0--22-|
|-0--0--0--00-||-0--0--0--00-||-0--0--0--00-||-0--0--0--00-|
|-0--0--0--00-||-0--0--0--00-||-0--0--0--00-||-0--0--0--00-|
|-------------||-------------||-------------||-------------|
|-------------||-------------||-------------||-------------|

1) ich tendiere dazu mich gut zu fühlen wenn ich alte
2) es ist beruhigend zu sehen wie man älter
3) da glühen funken in deinen augen wenn ich dich jetzt
4) treffen sich die menschen die wir nicht mögen immernoch auf 
|-------0-------0-------0-------0----|
|-------0-------0-------0-------0----|
|-------0-------0-------0-------0----|
|-------5-------5-------5-------5----|
|---4-4-4-4-4-4-4-4-4-4-4-4-4-4-4----|
|-0-2-2---2-2-2---2-2-2---2-2-2------|

1) photos seh
2) wir
3) seh
4) den  terrassen

------------------------------------------------------------------------
[Chorus]

|----------------------------------|
|----------------------------------|
|----------------------------------|
|-----4-------4-------5-------5----|
|-2-2-2-2-2-2-2---4-4-4-4-4-4-4----|
|-0-0-0-0-0-0-0-0-2-2-2-2-2-2-2----|

1) ein kleiner toast
2) auf die jahre die sie uns lassen
3) ohne uns anzufassen

5) ein langer weg nach hause
6) ich glaub ich brauche eine pause
7) es muss schwierig sein mich zu verstehen

				 
|---------------------------------|----------------------------|
|---------------------------------|----------------------------|
|---------------------------------|----------------------------|
|-----11-------11-------9-------9-|-------9-------9-----9s7----|
|-9-9--9-9-9-9--9-9-7-7-7-7-7-7-7-|-7-7-7-7-7-7-7-7-7-7-7------|
|-7-7--7-7-7-7--7-7-5-5-5-5-5-5-5-|-5-5-5-5-5-5-5-5-5-5-0------|

4) nur weil wir uns gewisse sachen trauen
8) warum ich mich gut mit thees versteh

------------------------------------------------------------------------
wenn man mir schreiben mag usw:
benny: 
der.schoenste.tag@gmx.net
------------------------------------------------------------------------
Comments