Tomte - Mit Dem Mofa Nach England Chords & Tabs

 

Mit Dem Mofa Nach England Chords & Tabs

Tomte Chords & Tabs

Version: 1 Type: Tab 0 ratings
1 star 2 stars 3 stars 4 stars 5 stars
comments

Mit Dem Mofa Nach England Tab

   
Tomte - Mit dem Mofa nach England


Stimmung: 	E A E A B E  
---------------------------------------------------------------------------------------
Ich habe den ganzen Anfang nur einmal getabbed, da es nur minimale verändert gibt..
2 mal als intro spielen, dann setzt gesang ein, wie unten zu sehen ist
---------------------------------------------------------------------------------------

[intro 2x ohne gesang]

  Q  Q  Q  E E   Q  Q  Q  E E   Q  Q  Q  E E   Q  Q  E E E E
|-------7----7-|-------7----7-|-------7----7-|---------7---7-|
|-------0----0-|-------0----0-|-------0----0-|---------0---0-|
|-------7----7-|-------7----7-|-------7----7-|---------7---7-|
|-0--0-----0---|-0--0-----0---|-0--0-----0---|-0--0--0---0---|
|-7--7-----7---|-7--7-----7---|-7--7-----7---|-7--7--7---7---|
|-0--0-----0---|-0--0-----0---|-0--0-----0---|-0--0--0---0---|


  Q  Q  Q  E E   Q  Q  Q  E E   Q  Q  Q  E E   Q  Q  Q  E E
|-------7----7-|-------7----7-|-------7----7-|-------7----7-|
|-------0----0-|-------0----0-|-------0----0-|-------0----0-|
|-------7----7-|-------7----7-|-------7----7-|-------7----7-|
|-0--0-----0---|-0--0-----0---|-0--0-----0---|-0--0-----0---|
|-7--7-----7---|-7--7-----7---|-7--7-----7---|-7--7-----7---|
|-0--0-----0---|-0--0-----0---|-0--0-----0---|-0--0-----0---|


  Q  Q  Q E E    Q  Q  E E E E   Q  Q  Q  E E   Q  Q  Q  E E
|-------7---7--|-------9---7---|-------7----7-|-------7----7-|
|-------0---0--|-------0---0---|-------0----0-|-------0----0-|
|-------7---7--|-------7---7---|-------7----7-|-------7----7-|
|-0--0----0----|-0--0----0---0-|-0--0-----0---|-0--0-----0---|
|-7--7----7----|-7--7----7---7-|-7--7-----7---|-7--7-----7---|
|-0--0----0----|-0--0----0---0-|-0--0-----0---|-0--0-----0---|


  Q  Q  E E E E   Q  Q  E E E E   Q  Q  E E E E   Q  Q  E E E E
|-7-----7---7---|-5-----5---5---|-4-----4---4---|-------2-------|
|-5--5--5---5---|-5--5--5---5---|-5--5--5---5---|-------5---5---|
|-0--0--0---0---|-0--0--0---0---|-0--0--0---0-0-|-0--0--0---0-0-|
|-0--0--0-0-0-0-|-0--0--0-0-0-0-|-0--0--0-0-0-0-|-0--0--0-0-0-0-|
|-0--0----0---0-|-0--0----0---0-|-0--0----0---0-|-0--0----0---0-|
|---------------|---------------|---------------|---------------|


   Q   Q   E  E E  E    Q   Q   E  E  E  E    Q   Q   E  E  E  E    E  E E  E E  E  E  E
|--------------------|----------9----------|---------------------|-----------------------|
|-----12--12-12---12-|-10------10-10----10-|--9---9------9-----9-|------------9--9--9-12-|
|-11--11--11------11-|-12--11-----11-11-11-|-11--11--11-11-11-11-|-11-12---12---12-11-11-|
|--9---9---9----9--9-|--9---9---------9----|--9---9---9--9--9--9-|--9--9-9--9----9--9--9-|
|--9---9-------------|--9---9--------------|--9---9---9-----9----|--9----9----------9--9-|
|--9---9-------------|--9------------------|--9---9--------------|-----------------------|


   Q   Q   E E  E E    E  E  E E  E E  E E    E E  E E  E E  E E    E E E  E E  E  E  E
|----------0--------|----------------------|---------------------|----------------------|
|-12--12--12---12---|----10----------------|----9-------9--------|----9---------9-----9-|
|-11--11--11---11---|-11----11---12---12---|-11---11---11---11---|-12-----12---11-11-11-|
|--0---0---0-0--0-0-|--0-------0--0-0--0-0-|--0------0--0-0--0-0-|--0---0--0-0--0--0--0-|
|--0---0-----0----0-|--0-------0--0-0----0-|--0------0--0-0----0-|------0----0--0-----0-|
|-------------------|----------------------|---------------------|----------------------|












-----------------------------------------------------------------------------------------

[Verse]

 Q  Q  Q  E E   Q  Q  Q  E E   Q  Q  Q  E E   Q  Q  E E E E
|-------7----7-|-------7----7-|-------7----7-|---------7---7-|
|-------0----0-|-------0----0-|-------0----0-|---------0---0-|
|-------7----7-|-------7----7-|-------7----7-|---------7---7-|
|-0--0-----0---|-0--0-----0---|-0--0-----0---|-0--0--0---0---|
|-7--7-----7---|-7--7-----7---|-7--7-----7---|-7--7--7---7---|
|-0--0-----0---|-0--0-----0---|-0--0-----0---|-0--0--0---0---|

süße sechzehn jahre

 Q  Q  E E E E   Q  Q  E E E E   Q  Q  E E E E   Q  Q  E E E E
|-7-----7---7---|-5-----5---5---|-4-----4---4---|-------2-------|
|-5--5--5---5---|-5--5--5---5---|-5--5--5---5---|-------5---5---|
|-0--0--0---0---|-0--0--0---0---|-0--0--0---0-0-|-0--0--0---0-0-|
|-0--0--0-0-0-0-|-0--0--0-0-0-0-|-0--0--0-0-0-0-|-0--0--0-0-0-0-|
|-0--0----0---0-|-0--0----0---0-|-0--0----0---0-|-0--0----0---0-|
|---------------|---------------|---------------|---------------|

 und voller zuversicht

   Q   Q   E  E E  E    Q   Q   E  E  E  E    Q   Q   E  E  E  E    E  E E  E E  E  E  E
|--------------------|----------9----------|---------------------|-----------------------|
|-----12--12-12---12-|-10------10-10----10-|--9---9------9-----9-|------------9--9--9-12-|
|-11--11--11------11-|-12--11-----11-11-11-|-11--11--11-11-11-11-|-11-12---12---12-11-11-|
|--9---9---9----9--9-|--9---9---------9----|--9---9---9--9--9--9-|--9--9-9--9----9--9--9-|
|--9---9-------------|--9---9--------------|--9---9---9-----9----|--9----9----------9--9-|
|--9---9-------------|--9------------------|--9---9--------------|-----------------------|

low im ohr


   Q   Q   E E  E E    E  E  E E  E E  E E    E E  E E  E E  E E    E E E  E E  E  E  E
|----------0--------|----------------------|---------------------|----------------------|
|-12--12--12---12---|----10----------------|----9-------9--------|----9---------9-----9-|
|-11--11--11---11---|-11----11---12---12---|-11---11---11---11---|-12-----12---11-11-11-|
|--0---0---0-0--0-0-|--0-------0--0-0--0-0-|--0------0--0-0--0-0-|--0---0--0-0--0--0--0-|
|--0---0-----0----0-|--0-------0--0-0----0-|--0------0--0-0----0-|------0----0--0-----0-|
|-------------------|----------------------|---------------------|----------------------|

die geschichte war


 Q  Q  Q  E E   Q  Q  Q  E E   Q  Q  Q  E E   Q  Q  E E E E
|-------7----7-|-------7----7-|-------7----7-|---------7---7-|
|-------0----0-|-------0----0-|-------0----0-|---------0---0-|
|-------7----7-|-------7----7-|-------7----7-|---------7---7-|
|-0--0-----0---|-0--0-----0---|-0--0-----0---|-0--0--0---0---|
|-7--7-----7---|-7--7-----7---|-7--7-----7---|-7--7--7---7---|
|-0--0-----0---|-0--0-----0---|-0--0-----0---|-0--0--0---0---|


 Q  Q  E E E E   Q  Q  E E E E   Q  Q  E E E E   Q  Q  E E E E
|-7-----7---7---|-5-----5---5---|-4-----4---4---|-------2-------|
|-5--5--5---5---|-5--5--5---5---|-5--5--5---5---|-------5---5---|
|-0--0--0---0---|-0--0--0---0---|-0--0--0---0-0-|-0--0--0---0-0-|
|-0--0--0-0-0-0-|-0--0--0-0-0-0-|-0--0--0-0-0-0-|-0--0--0-0-0-0-|
|-0--0----0---0-|-0--0----0---0-|-0--0----0---0-|-0--0----0---0-|
|---------------|---------------|---------------|---------------|


   Q   Q   E  E E  E    Q   Q   E  E  E  E    Q   Q   E  E  E  E    E  E E  E E  E  E  E
|--------------------|----------9----------|---------------------|-----------------------|
|-----12--12-12---12-|-10------10-10----10-|--9---9------9-----9-|------------9--9--9-12-|
|-11--11--11------11-|-12--11-----11-11-11-|-11--11--11-11-11-11-|-11-12---12---12-11-11-|
|--9---9---9----9--9-|--9---9---------9----|--9---9---9--9--9--9-|--9--9-9--9----9--9--9-|
|--9---9-------------|--9---9--------------|--9---9---9-----9----|--9----9----------9--9-|
|--9---9-------------|--9------------------|--9---9--------------|-----------------------|





   E E  E E  E E  E E   E  E  E E  E E  E E     E  E  E E  E  E E  E   E  E  E  E  E  E  E  E
|---------------------|---------------------|------------------------|------------------------|
|-12---12---12---12---|---14-14---14---14---|-/16----16-----------16-|---17----17----17----17-|
|-11---11---11---11---|------12---12---12---|-----14-14---14-14---14-|---16-16-16-16-16-16-16-|
|--0-0--0-0--0-0--0-0-|-0-----0-0--0-0--0-0-|---0--0--0-0--0--0-0--0-|-0--0--0--0--0--0--0--0-|
|----0----0----0----0-|-0-----0-0----0----0-|---0--0----0--0----0--0-|-0-----0-----0-----0----|
|---------------------|---------------------|------------------------|------------------------|


---------------------------------------------------------------------------------------
[Verse 2]

  E E E E E E E E E E E E E E E E   E E E E E E E E E E E E E E E E
|---------------------------------|-----------------------------------|
|-5-7-7-5-5-7-7-5-5-7-7-5-5-7-7-5-|-7-5-9-5-7-5-9-5-7-5-9-5-7-5-9-5---|
|-7-7-7-7-7-7-7-7-7-7-7-7-7-7-7-7-|-7-7-7-7-7-7-7-7-7-7-7-7-7-7-7-7---|
|-0-0-0-0-0-0-0-0-0-0-0-0-0-0-0-0-|-0-0-0-0-0-0-0-0-0-0-0-0-0-0-0-0---|
|-7-7-7-7-7-7-7-7-7-7-7-7-7-7-7-7-|-0---0---0---0---0---0---0---0-----|
|-0---0---0---0---0---0---0---0---|-----------------------------------|

Und irgendwo in Holland		hat sich einen Dame vielleicht gewundert

   E E  E E  E E  E E  E E  E E  E E  E E    E E  E E  E E  E E  E E  E E  E E  E E
|-----------------------------------------|-------------------------------------------|
|-----------------------------------------|-------------------------------------------|
|-11-9-11-9-11-9-11-9-11-9-11-9-11-9-11-9-|-11-9-11-9-11-9-11-9-11-9-11-9-11-9-11-9---|
|--9-9--9-9--9-9--9-9--9-9--9-9--9-9--9-9-|--9-9--9-9--9-9--9-9--9-9--9-9--9-9--9-9---|
|--9-9--9-9--9-9--9-9--9-9--9-9--9-9--9-9-|--0-0--0-0--0-0--0-0--0-0--0-0--0-0--0-0---|
|--9----9----9----9----9----9----9----9---|-------------------------------------------|
 Ich kann sehen, ob Leute				Bald Krank werden


---------------------------------------------------------------------------------------
  E E E E E E E E E E E E E E E E   E E E E E E E E E E E E E E E E
|---------------------------------|-----------------------------------|
|-9-5-7-5-9-5-7-5-9-5-7-5-9-5-7-5-|-7-5-9-5-7-5-9-5-7-5-9-5-7-5-9-5---|
|-7-7-7-7-7-7-7-7-7-7-7-7-7-7-7-7-|-7-7-7-7-7-7-7-7-7-7-7-7-7-7-7-7---|
|-0-0-0-0-0-0-0-0-0-0-0-0-0-0-0-0-|-0-0-0-0-0-0-0-0-0-0-0-0-0-0-0-0---|
|-7-7-7-7-7-7-7-7-7-7-7-7-7-7-7-7-|-0---0---0---0---0---0---0---0-----|
|-0---0---0---0---0---0---0---0---|-----------------------------------|

   E E  E E  E E  E E  E E  E E  E E  E E    E E  E E  E E  E E  E E  E E  E E  E E
|-----------------------------------------|-------------------------------------------|
|-----------------------------------------|-------------------------------------------|
|-11-9-11-9-11-9-11-9-11-9-11-9-11-9-11-9-|-11-9-11-9-11-9-11-9-11-9-11-9-11-9-11-9---|
|--9-9--9-9--9-9--9-9--9-9--9-9--9-9--9-9-|--9-9--9-9--9-9--9-9--9-9--9-9--9-9--9-9---|
|--9-9--9-9--9-9--9-9--9-9--9-9--9-9--9-9-|--0-0--0-0--0-0--0-0--0-0--0-0--0-0--0-0---|
|--9----9----9----9----9----9----9----9---|-------------------------------------------|

---------------------------------------------------------------------------------------

  E E E E E E E E E E E E E E E E   E E E E E E E E E E E E E E E E
|---------------------------------|-----------------------------------|
|-9-5-7-5-9-5-7-5-9-5-7-5-9-5-7-5-|-7-5-9-5-7-5-9-5-7-5-9-5-7-5-9-5---|
|-7-7-7-7-7-7-7-7-7-7-7-7-7-7-7-7-|-7-7-7-7-7-7-7-7-7-7-7-7-7-7-7-7---|
|-0-0-0-0-0-0-0-0-0-0-0-0-0-0-0-0-|-0-0-0-0-0-0-0-0-0-0-0-0-0-0-0-0---|
|-7-7-7-7-7-7-7-7-7-7-7-7-7-7-7-7-|-0---0---0---0---0---0---0---0-----|
|-0---0---0---0---0---0---0---0---|-----------------------------------|

Und irgendwo in Frankreich		Mit unter 30, mitunter glücklich

   E E  E E  E E  E E  E E  E E  E E  E E    E E  E E  E E  E E  E E  E E  E E  E E
|-----------------------------------------|-------------------------------------------|
|-----------------------------------------|-------------------------------------------|
|-11-9-11-9-11-9-11-9-11-9-11-9-11-9-11-9-|-11-9-11-9-11-9-11-9-11-9-11-9-11-9-11-9---|
|--9-9--9-9--9-9--9-9--9-9--9-9--9-9--9-9-|--9-9--9-9--9-9--9-9--9-9--9-9--9-9--9-9---|
|--9-9--9-9--9-9--9-9--9-9--9-9--9-9--9-9-|--0-0--0-0--0-0--0-0--0-0--0-0--0-0--0-0---|
|--9----9----9----9----9----9----9----9---|-------------------------------------------|

Wo hast du, 					 eigentlich damals geschlafen

---------------------------------------------------------------------------------------




  E E E E E E E E E E E E E E E E   E E E E E E E E E E E E E E E E
|---------------------------------|-----------------------------------|
|-9-5-7-5-9-5-7-5-9-5-7-5-9-5-7-5-|-7-5-9-5-7-5-9-5-7-5-9-5-7-5-9-5---|
|-7-7-7-7-7-7-7-7-7-7-7-7-7-7-7-7-|-7-7-7-7-7-7-7-7-7-7-7-7-7-7-7-7---|
|-0-0-0-0-0-0-0-0-0-0-0-0-0-0-0-0-|-0-0-0-0-0-0-0-0-0-0-0-0-0-0-0-0---|
|-7-7-7-7-7-7-7-7-7-7-7-7-7-7-7-7-|-0---0---0---0---0---0---0---0-----|
|-0---0---0---0---0---0---0---0---|-----------------------------------|

[ Tab from: http://www.guitartabs.cc/tabs/t/tomte/mit_dem_mofa_nach_england_tab.html ]
   E E  E E  E E  E E  E E  E E  E E  E E    E  E  E  E  E  E  E  E  E  E  E  E  E  E  E  E
|-----------------------------------------|---------------------------------------------------|
|-----------------------------------------|---------------------------------------------------|
|-11-9-11-9-11-9-11-9-11-9-11-9-11-9-11-9-|-11-11-11-11-11-11-11-12-12-12-12-12-12-11-11-11---|
|--9-9--9-9--9-9--9-9--9-9--9-9--9-9--9-9-|--9--9--9--9--9--9--9--9--9--9--9--9--9--9--9--9---|
|--9-9--9-9--9-9--9-9--9-9--9-9--9-9--9-9-|--0--0--0--0--0--0--0--0--0--0--0--0--0--0--0--0---|
|--9----9----9----9----9----9----9----9---|---------------------------------------------------|

---------------------------------------------------------------------------------------
 
   W       W                     W        W
|------------------------------|-----------------------|
|-12---------------------------|-12--------------------|
|-11---------------------------|-11--------------------|
|--9---------------------------|--0--------------------|
|--9---------------------------|--0--------------------|
|--9---------------------------|-----------------------|
mit dem mofa nach england,		demnächst als film,


   W       W                     W        W
|------------------------------|-----------------------|
|------------------------------|-12--------------------|
|-11---------------------------|-11--------------------|
|--9---------------------------|--0--------------------|
|--9---------------------------|--0--------------------|
|--9---------------------------|-----------------------|
an orginellen schauplätzen

  W       W                      W        W
|------------------------------|-----------------------|
|------------------------------|-12--------------------|
|------------------------------|-11--------------------|
|-9----------------------------|--0--------------------|
|-9----------------------------|--0--------------------|
|-9----------------------------|-----------------------|
 Mit dem Mofa nach England		Mit dem Mofa nach England

   W       W            W        W
|------------------------------|-----------------------|
|-12---------------------------|-----------------------|
|-11---------------------------|-11--------------------|
|--9---------------------------|--0--------------------|

|--9---------------------------|--0--------------------|
|--9---------------------------|-----------------------|
Mit dem Mofa nach England

----------------------------------------------------------------------------
[Part II]

   E E E E  E E E E  E E E E  E E E E   E E E E E E E E E E E E E E E E
|-------------------------------------|-----------------------------------|
|-------------------------------------|-----9-------9-------9-------9-----|
|-11-7-9-7-11-7-9-7-11-7-9-7-11-7-9-7-|-9-7---7-9-7---7-9-7---7-9-7---7---|
|--7-7-7-7--7-7-7-7--7-7-7-7--7-7-7-7-|-0-0-0-0-0-0-0-0-0-0-0-0-0-0-0-0---|
|--7-7-7-7--7-7-7-7--7-7-7-7--7-7-7-7-|-0-0-0-0-0-0-0-0-0-0-0-0-0-0-0-0---|
|--0-0-0-0--0-0-0-0--0-0-0-0--0-0-0-0-|-----------------------------------|


   E E  E E  E E  E E  E E  E E  E E  E E    E E  E E  E E  E E  E E  E E  E E  E E
|-----------------------------------------|-------------------------------------------|
|-----------------------------------------|-------------------------------------------|
|-11-9-11-9-11-9-11-9-11-9-11-9-11-9-11-9-|-11-9-11-9-11-9-11-9-11-9-11-9-11-9-11-9---|
|--9-9--9-9--9-9--9-9--9-9--9-9--9-9--9-9-|--9-9--9-9--9-9--9-9--9-9--9-9--9-9--9-9---|
|--9-9--9-9--9-9--9-9--9-9--9-9--9-9--9-9-|--0-0--0-0--0-0--0-0--0-0--0-0--0-0--0-0---|
|--9-9--9-9--9-9--9-9--9-9--9-9--9-9--9-9-|-------------------------------------------|


   E E E E  E E E E  E E E E  E E E E   E E E E E E E E E E E E E E E E
|-------------------------------------|-----------------------------------|
|-------------------------------------|-----9-------9-------9-------9-----|
|-11-7-9-7-11-7-9-7-11-7-9-7-11-7-9-7-|-9-7---7-9-7---7-9-7---7-9-7---7---|
|--7-7-7-7--7-7-7-7--7-7-7-7--7-7-7-7-|-0-0-0-0-0-0-0-0-0-0-0-0-0-0-0-0---|
|--7-7-7-7--7-7-7-7--7-7-7-7--7-7-7-7-|-0-0-0-0-0-0-0-0-0-0-0-0-0-0-0-0---|
|--0-0-0-0--0-0-0-0--0-0-0-0--0-0-0-0-|-----------------------------------|

   E E  E E  E E  E E  E E  E E  E E  E E    E E  E E  E E  E E  E E  E E  E E  E E
|-----------------------------------------|-------------------------------------------|
|-----------------------------------------|-------------------------------------------|
|-11-9-11-9-11-9-11-9-11-9-11-9-11-9-11-9-|-11-9-11-9-11-9-11-9-11-9-11-9-11-9-11-9---|
|--9-9--9-9--9-9--9-9--9-9--9-9--9-9--9-9-|--9-9--9-9--9-9--9-9--9-9--9-9--9-9--9-9---|
|--9-9--9-9--9-9--9-9--9-9--9-9--9-9--9-9-|--0-0--0-0--0-0--0-0--0-0--0-0--0-0--0-0---|
|--9-9--9-9--9-9--9-9--9-9--9-9--9-9--9-9-|-------------------------------------------|




  E E E E E  E  E  E E E E E E  E  E  E   E E E E E  E  E  E  E  E  E E E  E  E  E
|---------------------------------------|--------------------------------------------|
|-0-0-0-0-0--0--0--0-0-0-0-0-0--0--0--0-|-5-5-5-7-7--9--9-12-12--9--9-7-7--9--9--9---|
|-7-7-7-9-9-11-11----7-7-7-9-9-11-11----|-7-7-7-9-9-11-11-14-14-11-11-9-9-11-11-11---|
|-0-0-0-0-0--0--0--0-0-0-0-0-0--0--0--0-|-0-0-0-0-0--0--0--0--0--0--0-0-0--0--0--0---|
|-7-7-7-9-9-11-11-11-7-7-7-9-9-11-11-11-|-0-0-0-0-0--0--0--0--0--0--0-0-0--0--0--0---|
|-0-0-0-0-0--0--0--0-0-0-0-0-0--0--0--0-|--------------------------------------------|


   E  E  E  E  E E E  E  E  E  E  E  E E E  E    E  E  E  E  E E E  E  E  E  E  E  E E E E
|---------------------------------------------||----------------------------------------------|
|---------------------------------------------||----------------------------------------------|
|-11-11-11-11-11-9-9-11-11-11-11-11-11-9---11-||-11-11-11-11-11-9-9-11-11-11-11-11-11-9-9-9---|
|--9--9--9--9--9-9-9--9--9--9--9--9--9-9-9--9-||--9--9--9--9--9-9-9--9--9--9--9--9--9-9-9-9---|
|--9--9--9--9--9-9-9--9--9--9--9--9--9-9-9--9-||--0--0--0--0--0-0-0--0--0--0--0--0--0-0-0-0---|
|--9--9--9--9--9-9-9--9--9--9--9--9--9-9-9--9-||----------------------------------------------|


  E E E E E  E  E E E E E E E E E E   E E E E E  E  E  E  E  E  E E E  E  E  E
|-----------------------------------|--------------------------------------------|
|-0-0-0-0-0--0--0-0-0-0-0-0-0-0-0-0-|-5-5-5-7-7--9--9-12-12--9--9-7-7--9--9--9---|
|-7-7-7-9-9-11-11-7-7-7-6-6-4-4-7-7-|-7-7-7-9-9-11-11-14-14-11-11-9-9-11-11-11---|
|-0-0-0-0-0--0--0-0-0-0-0-0-0-0-0-0-|-0-0-0-0-0--0--0--0--0--0--0-0-0--0--0--0---|
|-7-7-7-9-9-11-11-7-7-7-6-6-4-4-7-7-|-0-0-0-0-0--0--0--0--0--0--0-0-0--0--0--0---|

|-0-0-0-0-0--0--0-0-0-0-0-0-0-0-0-0-|--------------------------------------------|


   E  E  E  E  E E E  E  E  E  E  E  E E E  E    E  E  E  E  E E E  E  E  E  E  E  E E E E
|---------------------------------------------|----------------------------------------------|
|---------------------------------------------|----------------------------------------------|
|-11-11-11-11-11-9-9-11-11-11-11-11-11-9---11-|-11-11-11-11-11-9-9-11-11-11-11-11-11-9-9-9---|
|--9--9--9--9--9-9-9--9--9--9--9--9--9-9-9--9-|--9--9--9--9--9-9-9--9--9--9--9--9--9-9-9-9---|
|--9--9--9--9--9-9-9--9--9--9--9--9--9-9-9--9-|--0--0--0--0--0-0-0--0--0--0--0--0--0-0-0-0---|
|--9--9--9--9--9-9-9--9--9--9--9--9--9-9-9--9-|----------------------------------------------|


----------------------------------------------------------------------------------------------
[break]

  Q  Q  W.              Q  Q  H.   Q E E Q
|-------7-------------|-------7----7-9p7------|
|-0-----0-------------|-0-----0---------------|
|-7--7--7-------------|-7--7--7----------7----|
|-0--0--0-------------|-0--0--0---------------|
|-7--7--7-------------|-7--7--7---------------|
|-0--0----------------|-0--0------------------|


  Q  Q  W.              Q  Q  W.
|-------7-------------|-------7-----|
|-0-----0-------------|-0-----0-----|
|-7--7--7-------------|-7--7--7-----|
|-0--0--0-------------|-0--0--0-----|
|-7--7--7-------------|-7--7--7-----|
|-0--0----------------|-0--0--------|

----------------------------------------------------------------------------------------------


   E E E E  E E E E  E E E E  E E E E   E E E E E E E E E E E E E E E E
|-------------------------------------|-----------------------------------|
|-------------------------------------|-----9-------9-------9-------9-----|
|-11-7-9-7-11-7-9-7-11-7-9-7-11-7-9-7-|-9-7---7-9-7---7-9-7---7-9-7---7---|
|--7-7-7-7--7-7-7-7--7-7-7-7--7-7-7-7-|-0-0-0-0-0-0-0-0-0-0-0-0-0-0-0-0---|
|--7-7-7-7--7-7-7-7--7-7-7-7--7-7-7-7-|-0-0-0-0-0-0-0-0-0-0-0-0-0-0-0-0---|
|--0-0-0-0--0-0-0-0--0-0-0-0--0-0-0-0-|-----------------------------------|

sich unterhalten				mit freunden die bald sterben

   E E  E E  E E  E E  E E  E E  E E  E E    E E  E E  E E  E E  E E  E E  E E  E E
|-----------------------------------------|-------------------------------------------|
|-----------------------------------------|-------------------------------------------|
|-11-9-11-9-11-9-11-9-11-9-11-9-11-9-11-9-|-11-9-11-9-11-9-11-9-11-9-11-9-11-9-11-9---|
|--9-9--9-9--9-9--9-9--9-9--9-9--9-9--9-9-|--9-9--9-9--9-9--9-9--9-9--9-9--9-9--9-9---|
|--9-9--9-9--9-9--9-9--9-9--9-9--9-9--9-9-|--0-0--0-0--0-0--0-0--0-0--0-0--0-0--0-0---|
|--9-9--9-9--9-9--9-9--9-9--9-9--9-9--9-9-|-------------------------------------------|

die kinder nach der				die kinder nach der zukunft fragen


   E E E E  E E E E  E E E E  E E E E   E E E E E E E E E E E E E E E E
|-------------------------------------|-----------------------------------|
|-------------------------------------|-----9-------9-------9-------9-----|
|-11-7-9-7-11-7-9-7-11-7-9-7-11-7-9-7-|-9-7---7-9-7---7-9-7---7-9-7---7---|
|--7-7-7-7--7-7-7-7--7-7-7-7--7-7-7-7-|-0-0-0-0-0-0-0-0-0-0-0-0-0-0-0-0---|
|--7-7-7-7--7-7-7-7--7-7-7-7--7-7-7-7-|-0-0-0-0-0-0-0-0-0-0-0-0-0-0-0-0---|
|--0-0-0-0--0-0-0-0--0-0-0-0--0-0-0-0-|-----------------------------------|

das ist das lied das sich			vieleicht zu übersetzen lohnt

   E E  E E  E E  E E  E E  E E  E E  E E    E E  E E  E E  E  E  E  E  E  E  E E  E E
|-----------------------------------------|----------------------------------------------|
|-----------------------------------------|-------------------10-10-10-10-10-10-9--9-9---|
|-11-9-11-9-11-9-11-9-11-9-11-9-11-9-11-9-|-11-9-11-9-11-9-11--9-11--9-11--9-11-9-11-9---|
|--9-9--9-9--9-9--9-9--9-9--9-9--9-9--9-9-|--9-9--9-9--9-9--9--9--9--9--9--9--9-9--9-9---|
|--9-9--9-9--9-9--9-9--9-9--9-9--9-9--9-9-|--0-0--0-0--0-0--0--0--0--0--0--0--0-0--0-0---|
|--9-9--9-9--9-9--9-9--9-9--9-9--9-9--9-9-|----------------------------------------------|
vieleicht zu übersetzen 			  lohnt


------------------------------------------------------------------------------

  Q   Q   W.                     Q   Q   W.
|------------------------------|----------------------|
|--------12--------------------|--------12------------|
|----11--11--------------------|----11--11------------|
|-9---9---9--------------------|-0---0---0------------|
|-9---9---9--------------------|-0---0---0------------|
|-9-------9--------------------|----------------------|

mit dem mofa nach england		demnächst als film

  Q   Q   W.                     Q   Q   W.
|------------------------------|----------------------|
|--------12--------------------|--------12------------|
|----11--11--------------------|----11--11------------|
|-9---9---9--------------------|-0---0---0------------|
|-9---9---9--------------------|-0---0---0------------|
|-9-------9--------------------|----------------------|

an originellen schauplätzen

  Q   Q   W.                     Q   Q   W.
|------------------------------|----------------------|
|--------12--------------------|--------12------------|
|----11--11--------------------|----11--11------------|
|-9---9---9--------------------|-0---0---0------------|
|-9---9---9--------------------|-0---0---0------------|
|-9-------9--------------------|----------------------|
		
mit dem mofa nach england		mit dem mofa nach england

  Q   Q   W.                     Q   Q   W.
|------------------------------|----------------------|
|--------12--------------------|--------12------------|
|----11--11--------------------|----11--11------------|
|-9---9---9--------------------|-0---0---0------------|
|-9---9---9--------------------|-0---0---0------------|
|-9-------9--------------------|----------------------|

mit dem mofa nach england		



  Q  Q  Q  E H.             Q.     Q  Q  Q  E H.     Q.
|------------7-------------------|------------7-------------------|
|-------0----0-------------------|-------0----0-------------------|
|-------7----7-------------------|-------7----7-------------------|
|-0--0--0--0-0-------------------|-0--0--0--0-0-------------------|
|-7--7--7--7-7-------------------|-7--7--7--7-7-------------------|
|-0--0-----0---------------------|-0--0-----0---------------------|

  Q  Q  Q  E H.             Q.     Q  Q  Q  E H.     Q.
|------------7-------------------|------------7-------------------|
|-------0----0-------------------|-------0----0-------------------|
|-------7----7-------------------|-------7----7-------------------|
|-0--0--0--0-0-------------------|-0--0--0--0-0-------------------|
|-7--7--7--7-7-------------------|-7--7--7--7-7-------------------|
|-0--0-----0---------------------|-0--0-----0---------------------|

ende auf:
|-7-|
|-0-|
|-7-|
|-0-|
|-7-|
|-0-|

------------------------------------------------------------------------------

Duration Legend
---------------
W - whole; H - half; Q - quarter; E - 8th; S - 16th; T - 32nd; X - 64th; a - acciaccatura
+ - note tied to previous; . - note dotted; .. - note double dotted
Uncapitalized letters represent notes that are staccato (1/2 duration)
Irregular groupings are notated above the duration line
Duration letters will always appear directly above the note/fret number it represents the
duration for.  Duration letters with no fret number below them represent rests.  Multi-
bar rests are notated in the form Wxn, where n is the number of bars to rest for.  Low
melody durations appear below the staff

Tablature Legend
----------------
 p   - pull-off
 /\  - slide into or out of (from/to "nowhere")


------------------------------------------------------------------------
wenn man mir schreiben mag usw:
benny: 
der.schoenste.tag@gmx.net
------------------------------------------------------------------------
Comments