Tomte - Ich Sang Die Ganze Zeit Von Dir Chords & Tabs

 

Ich Sang Die Ganze Zeit Von Dir Chords & Tabs

Tomte Chords & Tabs

Version: 1 Type: Tab

Ich Sang Die Ganze Zeit Von Dir Tab

   
ICH SANG DIE GANZE ZEIT VON DIR

C#
Mit fester Stimme sag ich Dir hab keine Angst
E                A
und ich weiß nicht mehr
C#
habe ich Dir kürzlich erzählt
C#
Daß bald etwas passiert, was Dir gefällt
    E               A
und wir werden nicht vergessen,
C#
wie furchtbar es war

C#
Mein betrunkenes Gestotter durch die Straßen, durch die Gassen
E               A
weht ein heißer Wind,
E       C#
der nur sagt
E      A      C#
Bitte bleib am leben

Refrain-Riff

E -------------------------------------------------------------------|
H --14-----14--14--14---- 14--14--14-----14--14--12-----12--12-------|
G ----14-----14------14-----14------13-----13------13-----13---------|
D -------14-------------14-------------14-------------14-------------|
A -------------------------------------------------------------------|
E -------------------------------------------------------------------|


A
Weißt Du was Du mir bedeutest
C#                 E
auf einem Platz in meinem Herz
A
steht Dein Name an der Wand
C#                 E
und ich Ich will, dass Du es erfährst
A
Ich werde immer an Dich glauben
C#              E
egal was auch passiert
A
Manche singen von ihm
C#             E
Ich sang Dir ganze Zeit von Dir.
[ Tab from: http://www.guitartabs.cc/tabs/t/tomte/ich_sang_die_ganze_zeit_von_dir_tab.html ]
1 & 2 & 3 & 4 &
C#          E
1 & 2 & 3 & 4 &
C#

Ich hatte keinen Hunger
Ich hatte einfach Durst
alles was ich verliere auf dem Weg
Ich weiß, ich werde sterben
Ich weiß, ich werde gehen
Auf dem Schild, das ich jetzt trage
kann man Dein Antlitz sehen


Es ist die Leidenschaft, die treibt
die Passion in Deinem Blick
ich war ein guter Junge
heute mache ich mich schick
ich war ein guter Junge
heute mache ich mich schick


Weißt Du was Du mir bedeutest
auf einem Platz in meinem Herz
steht Dein Name an der Wand
und ich will, dass Du es erfährst
Ich werde immer an Dich glauben
egal was auch passiert

Manche singen von ihm
Ich sang Dir ganze Zeit von Dir.

Zwischenstück (2x):

E -----------------------------------------------|
H -----------------------------------------------|
G --13-s-14--13----13-s-14--13--14-13--11--13~~~-|
D --10-s-11--11----10-s-11--11-------------------|
A -----------------------------------------------|
E -----------------------------------------------|

Es ist die Leidenschaft, die treibt
die Passion in Deinem Blick
ich war ein guter Junge
heute mache ich mich schick
ich war ein guter Junge
heute mache ich mich schick


Weißt Du was Du mir bedeutest
auf einem Platz in meinem Herz
steht Dein Name an der Wand
und ich will, dass Du es erfährst
Ich werde immer an Dich glauben
egal was auch passiert
Manche singen von ihm
Ich sang Dir ganze Zeit von Dir.

------------------------------------

Korrekturen & Kommentare willkommen:
geekfactor@jager.com