Tomte - Gorillas Im Kstennebel Chords & Tabs

 

Gorillas Im Kstennebel Chords & Tabs

Tomte Chords & Tabs

Version: 1 Type: Tab 0 ratings
1 star 2 stars 3 stars 4 stars 5 stars
comments

Gorillas Im Kstennebel Tab

   
Tomte - Gorillas im Küstennebel

Stimmung: 	Normal (EADGHE (endlich mal!))

Die Akkorde sind beliebig benannt.. blah blah.
das lied ist arg unübersichtlich, wie alle anderen auch!
man muss es wiedermal kennen..
den komische Q und E kram über der tabulatur hat das programm so gemacht,
ich lasse es da in der hoffnung, das jemand es versteht..
ich glaube Q steht für "quarter (viertel)" und E für "eigth (achtel)".
da die anschläge sowieso recht unperfekt niedergeschrieben stehen,
kann man auch einfach wegsehen, bei den Q und E sachen.
Q. heisst punktiert.. das habe ich selber heute neu herausgefunden,
was eine punktierte note ist..
dieses programm ist echt ziemlich praktisch.. 
www.powertab.guitarnetwork.org
ich lege warscheinlich eine sogenannte .pt datei bei, die man dann
damit öffnen kann, um sich das lied in der tab form anzusehen.
mit diesen programm kann man nämlich die .pt dateien abspielen!

------------------------------------------------------------------------


intro (4 mal), (beim letzen mal den letzten akkord nur ausklingen lassen)
  Q  E E E E Q  E E E E E E E E E E E E E E E E E E E E E E E E
|-4--4-4-4-4-4--4-4-4-4-4-----------------------------------------|
|-5--5-5-5-5-4--4-4-4-4-4h5-0-0-5-----7-----9-----9-9-9-9-9-9-0---|
|-6--6-6-6-6-4--4-4-4-4-4---0-0-6-----6-----8-----8-8-8-8-8-8-0---|
|-6--6-6-6-6-6--6-6-6-6-6---0-0-7-----7-----9-----9-9-9-9-9-9-0---|
|-4--4-4-4-4-4--4-4-4-4-4-------0-0-0-0-0-0-0-0-0-0-0-0-0-0-0-----|
|-----------------------------------------------------------------|

------------------------------------------------------------------------

Strophe:

[riff A1]
  Q  E E E E Q  E E E E E E E E Q  E E E E Q  E E E E Q  E E
|-4--4-4-4-4-4--4-4-4-4-4-----------------------------------------|
|-5--5-5-5-5-4--4-4-4-4-4h5-0-0-2--2-2-2-2-2--2-2-2-2-2--2-2------|
|-6--6-6-6-6-4--4-4-4-4-4---0-0-2--2-2-2-2-2--2-2-2-2-2--2-2------|
|-6--6-6-6-6-6--6-6-6-6-6---0-0-2--2-2-2-2-2--2-2-2-2-2--2-2------|
|-4--4-4-4-4-4--4-4-4-4-4-------0 -0-0-0-0-0--0-0-0-0-0--0-0------|
|-----------------------------------------------------------------|


[riff A2]
  Q  E E E E Q  E E E E E E E E E E E E E E E E E E E E E E E E
|-4--4-4-4-4-4--4-4-4-4-4-----------------------------------------|
|-5--5-5-5-5-4--4-4-4-4-4h5-0-0-5-----7-----9-----9-9-9-9-9-9-0---|
|-6--6-6-6-6-4--4-4-4-4-4---0-0-6-----6-----8-----8-8-8-8-8-8-0---|
|-6--6-6-6-6-6--6-6-6-6-6---0-0-7-----7-----9-----9-9-9-9-9-9-0---|
|-4--4-4-4-4-4--4-4-4-4-4-------0-0-0-0-0-0-0-0-0-0-0-0-0-0-0-----|
|-----------------------------------------------------------------|


[riff A1]                   [riff A2]
Die Affen rasen durch den Wald,
[riff A1]                     [riff A2]  
nur ein Eichhörnchen bleibt stehen
[riff A1]                      [riff A2]
Alles, was lebt, wird langsam alt
[riff A1]                       [riff A2] 
Manchmal versteckt sich das verstehen.


------------------------------------------------------------------------

chorus
[riff B2] 
   Q   E  E  E  E Q  E  E  E  E  E   E  E  E        Q  E E E E Q   E  E  E  E  E  E E E
|--------------------------------------------|    |---------------------------------------|
|--------------------------------------------|    |-9--9-9-9-9----10-10-10-10-10\-9-9-9---|
|-13--13-13-13-13-9--9-14-14-14-14\-13-13-13-|    |------------9--------------------------|
|--------------------------------------------|ODER|-9--9-9-9-9-9---9--9--9--9--9--9-9-9---|
|-11--11-11-11-11-7--7-12-12-12-12\-11-11-11-|    |-7--7-7-7-7-7---7--7--7--7--7--7-7-7---|
|--0---0--0--0--0-0--0--0--0--0--0---0--0--0-|    |-0--0-0-0-0-0---0--0--0--0--0--0-0-0---|
			(beide dieser riffs klingen ähnlich, der rest bleibt so
                         oder so gleich)


  Q  E E E E Q  E E E E H     Q  E E E E Q  E E E E E     E E E
|-2--2-2-2-2-2--2-2-2-2-3----------4-4-4-4--4-4-4-4-4-----4-4-4---|
|-4--4-4-4-4-4--4-4-4-4-5----------5-5-5-5--5-7-7-7-7b7.5r7-5-5---|
|-4--4-4-4-4-4--4-4-4-4-5-----6--6-6-6-6-6--6-6-6-6-6-----6-6-6---|
|-4--4-4-4-4-4--4-4-4-4-5-----6--6-6-6-6-6--6-6-6-6-6-----6-6-6---|
|-2--2-2-2-2-2--2-2-2-2-3-----4--4-4-4-4-4--4-4-4-4-4-----4-4-4---|
|-----------------------------------------------------------------|

1.                                   2.     
  Q  E E Q  Q  E E E E E E E Q       Q.  Q.    H  Q Q
|------------------------------|  |------------0--0-0----|
|-2--2-2-2--1--1-1-1-1-1-1-1-1-|  |--2---2-----1--1-1----|
|-2--2-2-2--2--2-2-2-2-2-2-2-2-|  |--2---2-----2--2-2----|
|-2--2-2-2--2--2-2-2-2-2-2-2-2-|  |--2---2-----2--2-2----|
|-0--0-0-0--0--0-0-0-0-0-0-0-0-|  |--0---0-----0---------|
|------------------------------|  |----------------------|
                     (2. ---> nur beim letzten mal spielen (also über "das gefühl, im weg zu stehen")
                              man spielt abgestockt..wie doof das ist mit den anschlägen!)  

[riff B2]
	Ein Versuch zu helfen

[riff B2]
	Das Gefühl, im weg zu stehen


------------------------------------------------------------------------

Strophe:

[riff A1]
  Q  E E E E Q  E E E E E E E E Q  E E E E Q  E E E E Q  E E
|-4--4-4-4-4-4--4-4-4-4-4-----------------------------------------|
|-5--5-5-5-5-4--4-4-4-4-4h5-0-0-2--2-2-2-2-2--2-2-2-2-2--2-2------|
|-6--6-6-6-6-4--4-4-4-4-4---0-0-2--2-2-2-2-2--2-2-2-2-2--2-2------|
|-6--6-6-6-6-6--6-6-6-6-6---0-0-2--2-2-2-2-2--2-2-2-2-2--2-2------|
|-4--4-4-4-4-4--4-4-4-4-4-------0 -0-0-0-0-0--0-0-0-0-0--0-0------|
|-----------------------------------------------------------------|


[riff A2]
  Q  E E E E Q  E E E E E E E E E E E E E E E E E E E E E E E E
|-4--4-4-4-4-4--4-4-4-4-4-----------------------------------------|
|-5--5-5-5-5-4--4-4-4-4-4h5-0-0-5-----7-----9-----9-9-9-9-9-9-0---|
|-6--6-6-6-6-4--4-4-4-4-4---0-0-6-----6-----8-----8-8-8-8-8-8-0---|
|-6--6-6-6-6-6--6-6-6-6-6---0-0-7-----7-----9-----9-9-9-9-9-9-0---|
|-4--4-4-4-4-4--4-4-4-4-4-------0-0-0-0-0-0-0-0-0-0-0-0-0-0-0-----|
|-----------------------------------------------------------------|


[riff A1]                   [riff A2]
Ein neuer Tag nimmt seinen lauf
[riff A1]                         [riff A2] 
Man versucht erneut ein Ohr zu leihen
[riff A1]                         [riff A2]
Alles, was lebt, wacht manchmal auf
[riff A1]                           [riff A2]
Man lebt durch Reden, nicht durch Schrein


------------------------------------------------------------------------
[ Tab from: http://www.guitartabs.cc/tabs/t/tomte/gorillas_im_kstennebel_tab.html ]
chorus
[riff B2] 
   Q   E  E  E  E Q  E  E  E  E  E   E  E  E        Q  E E E E Q   E  E  E  E  E  E E E
|--------------------------------------------|    |---------------------------------------|
|--------------------------------------------|    |-9--9-9-9-9----10-10-10-10-10\-9-9-9---|
|-13--13-13-13-13-9--9-14-14-14-14\-13-13-13-|    |------------9--------------------------|
|--------------------------------------------|ODER|-9--9-9-9-9-9---9--9--9--9--9--9-9-9---|
|-11--11-11-11-11-7--7-12-12-12-12\-11-11-11-|    |-7--7-7-7-7-7---7--7--7--7--7--7-7-7---|
|--0---0--0--0--0-0--0--0--0--0--0---0--0--0-|    |-0--0-0-0-0-0---0--0--0--0--0--0-0-0---|
			(beide dieser riffs klingen ähnlich, der rest bleibt so
                         oder so gleich)


  Q  E E E E Q  E E E E H     Q  E E E E Q  E E E E E     E E E
|-2--2-2-2-2-2--2-2-2-2-3----------4-4-4-4--4-4-4-4-4-----4-4-4---|
|-4--4-4-4-4-4--4-4-4-4-5----------5-5-5-5--5-7-7-7-7b7.5r7-5-5---|
|-4--4-4-4-4-4--4-4-4-4-5-----6--6-6-6-6-6--6-6-6-6-6-----6-6-6---|
|-4--4-4-4-4-4--4-4-4-4-5-----6--6-6-6-6-6--6-6-6-6-6-----6-6-6---|
|-2--2-2-2-2-2--2-2-2-2-3-----4--4-4-4-4-4--4-4-4-4-4-----4-4-4---|
|-----------------------------------------------------------------|

1.                                   2.     
  Q  E E Q  Q  E E E E E E E Q       Q.  Q.    H  Q Q
|------------------------------|  |------------0--0-0----|
|-2--2-2-2--1--1-1-1-1-1-1-1-1-|  |--2---2-----1--1-1----|
|-2--2-2-2--2--2-2-2-2-2-2-2-2-|  |--2---2-----2--2-2----|
|-2--2-2-2--2--2-2-2-2-2-2-2-2-|  |--2---2-----2--2-2----|
|-0--0-0-0--0--0-0-0-0-0-0-0-0-|  |--0---0-----0---------|
|------------------------------|  |----------------------|
                     (2. ---> nur beim letzten mal spielen (also über "das gefühl, im weg zu stehen")
                              man spielt abgestockt..wie doof das ist mit den anschlägen!)  

[riff B2]
	Ein Versuch zu helfen

[riff B2]
	Das Gefühl, im weg zu stehen

------------------------------------------------------------------------
Part 2

[riff C]
  Q  E E E E Q.  E E E E E E E  E E E E E E E E E E E E E E E E
|------------------------------------------------------------------|
|------------------------------------------------------------------|
|-4--4-4-4-4-9---7-7-7-7-7-7-7--4-4-4-4-4-4-9-9-9-9-9-9-9-9-9-9----|
|------------------------------------------------------------------|
|-2--2-2-2-2-7---5-5-5-5-5-5-5--2-2-2-2-2-2-7-7-7-7-7-7-7-7-7-7----|
|-0--0-0-0-0-0---0-0-0-0-0-0-0--3-3-3-3-3-3-8-8-8-8-8-8-8-8-8-8----|

[riff C]
	Ein Versuch, die Welt zu retten
[riff C]
	bleibt mir quer im Halse stecken
[riff C]
	Eine Idee erstickt sich selbst
[riff C]
	ich will mich einfach nur verstecken (<- über den nächsten teil singen)


------------------------------------------------------------------------

[riff D1]
  Q  E E E E Q  E E E E Q  E E Q  E E E E Q  E E E E Q  E E
|--------------------------------------------------------------|
|--------------------------------------------------------------|
|-9--9-9-9-9-9--9-9-9-9-9--9-9-9--9-9-9-9-9--9-9-9-9-9--9-9----|
|--------------------------------------------------------------|
|-7--7-7-7-7-7--7-7-7-7-7--7-7-7--7-7-7-7-7--7-7-7-7-7--7-7----|
|-9--9-9-9-9-9--9-9-9-9-9--9-9-8--8-8-8-8-8--8-8-8-8-8--8-8----|
                                        

[Riff D2]
  Q  E E E E Q  E E E E Q  E E Q  E E E E Q  E E E E E E E Q
|---------------------------------------------------------------|
|---------------------------------------------------------------|
|-4--4-4-4-4-4--4-4-4-4-4--4-4-4--4-4-4-4-8--8-8-8-8-8-8-8-8----|
|---------------------------------------------------------------|
|-2--2-2-2-2-2--2-2-2-2-2--2-2-2--2-2-2-2-6--6-6-6-6-6-6-6-6----|
|-3--3-3-3-3-3--3-3-3-3-3--3-3-3--3-3-3-3-7--7-7-7-7-7-7-7-7----|


[riff D1]
			bei dir
[riff D1]		
			bei dir
[riff D1]			      [riff D2]	
			fühl ich mich  wohl


------------------------------------------------------------------------

strophe

[riff A1]
  Q  E E E E Q  E E E E E E E E E E E E E E E E E E E E E E E E
|-4--4-4-4-4-4--4-4-4-4-4-----------------------------------------|
|-5--5-5-5-5-4--4-4-4-4-4h5-0-0-5-----7-----9-----9-9-9-9-9-9-0---|
|-6--6-6-6-6-4--4-4-4-4-4---0-0-6-----6-----8-----8-8-8-8-8-8-0---|
|-6--6-6-6-6-6--6-6-6-6-6---0-0-7-----7-----9-----9-9-9-9-9-9-0---|
|-4--4-4-4-4-4--4-4-4-4-4-------0-0-0-0-0-0-0-0-0-0-0-0-0-0-0-----|
|-----------------------------------------------------------------|


[riff A2]
  Q  E E E E Q  E E E E E E E E E E E E E E E E E E E E E E E E
|-4--4-4-4-4-4--4-4-4-4-4-----------------------------------------|
|-5--5-5-5-5-4--4-4-4-4-4h5-0-0-5-----7-----9-----9-9-9-9-9-9-0---|
|-6--6-6-6-6-4--4-4-4-4-4---0-0-6-----6-----8-----8-8-8-8-8-8-0---|
|-6--6-6-6-6-6--6-6-6-6-6---0-0-7-----7-----9-----9-9-9-9-9-9-0---|
|-4--4-4-4-4-4--4-4-4-4-4-------0-0-0-0-0-0-0-0-0-0-0-0-0-0-0-----|
|-----------------------------------------------------------------|

[riff A1] 2 mal ohne gesagt


[riff A1]               [riff A2]
Die Affen sterben vor Erschöpfung

[riff A1]		       [riff A2]
Man versucht erneut sich zu verzeihen

[riff A1]			[riff A2]
Alles was lebt, legt sich mal schlafen

[riff A1]                                [riff A2]
Man stirbt durch Schweigen, nicht durch Schreien.


------------------------------------------------------------------------
chorus
[riff B2] 
   Q   E  E  E  E Q  E  E  E  E  E   E  E  E        Q  E E E E Q   E  E  E  E  E  E E E
|--------------------------------------------|    |---------------------------------------|
|--------------------------------------------|    |-9--9-9-9-9----10-10-10-10-10\-9-9-9---|
|-13--13-13-13-13-9--9-14-14-14-14\-13-13-13-|    |------------9--------------------------|
|--------------------------------------------|ODER|-9--9-9-9-9-9---9--9--9--9--9--9-9-9---|
|-11--11-11-11-11-7--7-12-12-12-12\-11-11-11-|    |-7--7-7-7-7-7---7--7--7--7--7--7-7-7---|
|--0---0--0--0--0-0--0--0--0--0--0---0--0--0-|    |-0--0-0-0-0-0---0--0--0--0--0--0-0-0---|
			(beide dieser riffs klingen ähnlich, der rest bleibt so
                         oder so gleich)


  Q  E E E E Q  E E E E H     Q  E E E E Q  E E E E E     E E E
|-2--2-2-2-2-2--2-2-2-2-3----------4-4-4-4--4-4-4-4-4-----4-4-4---|
|-4--4-4-4-4-4--4-4-4-4-5----------5-5-5-5--5-7-7-7-7b7.5r7-5-5---|
|-4--4-4-4-4-4--4-4-4-4-5-----6--6-6-6-6-6--6-6-6-6-6-----6-6-6---|
|-4--4-4-4-4-4--4-4-4-4-5-----6--6-6-6-6-6--6-6-6-6-6-----6-6-6---|
|-2--2-2-2-2-2--2-2-2-2-3-----4--4-4-4-4-4--4-4-4-4-4-----4-4-4---|
|-----------------------------------------------------------------|

1.                                   2.     
  Q  E E Q  Q  E E E E E E E Q       Q.  Q.    H  Q Q
|------------------------------|  |------------0--0-0----|
|-2--2-2-2--1--1-1-1-1-1-1-1-1-|  |--2---2-----1--1-1----|
|-2--2-2-2--2--2-2-2-2-2-2-2-2-|  |--2---2-----2--2-2----|
|-2--2-2-2--2--2-2-2-2-2-2-2-2-|  |--2---2-----2--2-2----|
|-0--0-0-0--0--0-0-0-0-0-0-0-0-|  |--0---0-----0---------|
|------------------------------|  |----------------------|
                     (2. ---> nur beim letzten mal spielen (also über "das gefühl, im weg zu stehen")
                              man spielt abgestockt..wie doof das ist mit den anschlägen!)  

[riff B2]
		Ein Versuch zu helfen
[riff B2]
[riff B2]
[riff B2]
[riff B2]

------------------------------------------------------------------------

------------------------------------------------------------------------
wenn man mir schreiben mag usw:
benny: 
der.schoenste.tag@gmx.net
------------------------------------------------------------------------
Comments