Tomte - Eine Sonnige Nacht Chords & Tabs

 

Eine Sonnige Nacht Chords & Tabs

Tomte Chords & Tabs

Version: 1 Type: Tab 0 ratings
1 star 2 stars 3 stars 4 stars 5 stars
comments

Eine Sonnige Nacht Tab

   
Tomte - Eine Sonnige Nacht

Stimmung: 	E A E A B E  -  capo 1
		(ich empfehle die gitarre wie folgt zu stimmen
		und das capo auf den 3. Bund zu legen, und das
		reißen der saiten zu vermeiden:
		D G D G A D  -  capo 3

Die Akkorde sind beliebig benannt.. ich weiss nicht, wie sie heissen,
ich denke jedoch, selbst wenn ich es wüsste, tät es nicht viel zur sache, da sie
vermutlich arg fremd wären (Esus2add6/F#) ......
------------------------------------------------------------------------
Intro:

|-----------------------|-----------------------|
|-7s=9--9s12-12s=9--9s7-|-7s=9--9s12-12s=9--9s7-|
|-9s11-11s14-14s11-11s9-|-9s11-11s14-14s11-11s9-|
|-0-----0-----0-----0---|-0-----0-----0-----0---|
|-0-----0-----0-----0---|-0-----0-----0-----0---|
|-----------------------|-----------------------|


|-----------------------|-----------------------|
|-7s=9--9s12-12s=9--9s7-|-7s=9--9s12-12s=9--9s7-|
|-9s11-11s14-14s11-11s9-|-9s11-11s14-14s11-11s9-|
|-0-----0-----0-----0---|-0-----0-----0-----0---|
|-0-----0-----0-----0---|-0-----0-----0-----0---|
|-----------------------|-----------------------|

D
|--0--0--0--0--0--0--0--0-|--0--0--0--0--0--0--0--0-|
|--0--0--0--0--0--0--0--0-|--0--0--0--0--0--0--0--0-|
|-11-11-11-11-11-11-11-11-|-11-11-11-11-11-11-11-11-|
|--0--0--0--0--0--0--0--0-|--0--0--0--0--0--0--0--0-|
|-11-11-11-11-11-11-11-11-|-11-11-11-11-11-11-11-11-|
|--9--9--9--9--9--9--9--9-|--9--9--9--9--9--9--9--9-|


|--0--0--0--0--0--0--0--0-|--0--0--0--0--0--0--0--0-|
|--0--0--0--0--0--0--0--0-|--0--0--0--0--0--0--0--0-|
|-11-11-11-11-11-11-11-11-|-11-11-11-11-11-11-11-11-|
|--0--0--0--0--0--0--0--0-|--0--0--0--0--0--0--0--0-|
|-11-11-11-11-11-11-11-11-|-11-11-11-11-11-11-11-11-|
|--9--9--9--9--9--9--9--9-|--9--9--9--9--9--9--9--9-|


------------------------------------------------------------------------
Verse
Akkorde:


|-7-|--0-|
|-0-|--0-|
|-7-|-11-|
|-0-|--0-|
|-7-|-11-|
|-5-|--9-|
 A#2   D


		A#2
Es war eine sonnige Nacht
			 D
Wir saßen an einem künstlichen See vor einem Café
	 A#2
Da ist Salz auf deiner Jacke
    D
Von mir
		      A#2
Das Leben ist so hart
					     D
Es sollte ein Job sein Man sollte Geld dafür bekommen
		A#2				
Dass man es schafft aber es macht alles Sinn
   D
Es passt alles ineinander    und ich


|-----------------------|-----------------------|
|-7s=9--9s12-12s=9--9s7-|-7s=9--9s12-12s=9--9s7-|
|-9s11-11s14-14s11-11s9-|-9s11-11s14-14s11-11s9-|
|-0-----0-----0-----0---|-0-----0-----0-----0---|
|-0-----0-----0-----0---|-0-----0-----0-----0---|
|-----------------------|-----------------------|
 gehe 	meinen 	weg	

|-----------------------|-----------------------|
|-7s=9--9s12-12s=9--9s7-|-7s=9--9s12-12s=9--9s7-|
|-9s11-11s14-14s11-11s9-|-9s11-11s14-14s11-11s9-|
|-0-----0-----0-----0---|-0-----0-----0-----0---|
|-0-----0-----0-----0---|-0-----0-----0-----0---|
|-----------------------|-----------------------|
					  in meinem

|--0--0--0--0--0--0--0--0-|--0--0--0--0--0--0--0--0-|
|--0--0--0--0--0--0--0--0-|--0--0--0--0--0--0--0--0-|
|-11-11-11-11-11-11-11-11-|-11-11-11-11-11-11-11-11-|
|--0--0--0--0--0--0--0--0-|--0--0--0--0--0--0--0--0-|
|-11-11-11-11-11-11-11-11-|-11-11-11-11-11-11-11-11-|
|--9--9--9--9--9--9--9--9-|--9--9--9--9--9--9--9--9-|
  gott			gehassten 

|--0--0--0--0--0--0--0--0-|--0--0--0--0--0--0--0--0-|
|--0--0--0--0--0--0--0--0-|--0--0--0--0--0--0--0--0-|
|-11-11-11-11-11-11-11-11-|-11-11-11-11-11-11-11-11-|
|--0--0--0--0--0--0--0--0-|--0--0--0--0--0--0--0--0-|
|-11-11-11-11-11-11-11-11-|-11-11-11-11-11-11-11-11-|
|--9--9--9--9--9--9--9--9-|--9--9--9--9--9--9--9--9-|
	Leben

|-----------------------|-----------------------|
|-7s=9--9s12-12s=9--9s7-|-7s=9--9s12-12s=9--9s7-|
|-9s11-11s14-14s11-11s9-|-9s11-11s14-14s11-11s9-|
|-0-----0-----0-----0---|-0-----0-----0-----0---|
|-0-----0-----0-----0---|-0-----0-----0-----0---|
|-----------------------|-----------------------|


|-----------------------|-----------------------|
|-7s=9--9s12-12s=9--9s7-|-7s=9--9s12-12s=9--9s7-|
|-9s11-11s14-14s11-11s9-|-9s11-11s14-14s11-11s9-|
|-0-----0-----0-----0---|-0-----0-----0-----0---|
|-0-----0-----0-----0---|-0-----0-----0-----0---|
|-----------------------|-----------------------|


|--0--0--0--0--0--0--0--0-|--0--0--0--0--0--0--0--0-|
|--0--0--0--0--0--0--0--0-|--0--0--0--0--0--0--0--0-|
|-11-11-11-11-11-11-11-11-|-11-11-11-11-11-11-11-11-|
|--0--0--0--0--0--0--0--0-|--0--0--0--0--0--0--0--0-|
|-11-11-11-11-11-11-11-11-|-11-11-11-11-11-11-11-11-|
|--9--9--9--9--9--9--9--9-|--9--9--9--9--9--9--9--9-|

[ Tab from: http://www.guitartabs.cc/tabs/t/tomte/eine_sonnige_nacht_tab.html ]
|--0--0--0--0--0--0--0--0-|--0--0--0--0--0--0--0--0-|
|--0--0--0--0--0--0--0--0-|--0--0--0--0--0--0--0--0-|
|-11-11-11-11-11-11-11-11-|-11-11-11-11-11-11-11-11-|
|--0--0--0--0--0--0--0--0-|--0--0--0--0--0--0--0--0-|
|-11-11-11-11-11-11-11-11-|-11-11-11-11-11-11-11-11-|
|--9--9--9--9--9--9--9--9-|--9--9--9--9--9--9--9--9-|

------------------------------------------------------------------------
Chorus
Akkorde:

|-0-|-0-|-0-|-0-|--0-|
|-0-|-0-|-0-|-0-|--0-|
|-7-|-7-|-7-|-9-|-11-|
|-0-|-0-|-0-|-0-|--0-|
|-7-|-7-|-7-|-9-|-11-|
|-0-|-5-|-0-|-7-|--9-|
  1   2   3   4    5  


               1 
Mach dir keine Sorgen
    2          3          4       5
Der Schlaf überkommt dich so oder so
		  2	
Bitte denk an morgen

------------------------------------------------------------------------
[Intro 2x]
------------------------------------------------------------------------
[Verse]
		A#2
Es war eine sonnige Nacht
			D				
Ich kaufte Blumen für meine Mutter
	     A#2	
Ein Freund sagte mir "Ich fahr zu dem Konzert, 
	  D
das so wichtig für dich wär"
           A#2
Sie wusste das und rief mich an
    D		
Und hielt ihr Mo Einfach in den Sound
       A#2                                         
In den Raum In den Sound In den Raum In den Sound 
       D 
In den Raum      -in einem 


|-----------------------|-----------------------|
|-7s=9--9s12-12s=9--9s7-|-7s=9--9s12-12s=9--9s7-|
|-9s11-11s14-14s11-11s9-|-9s11-11s14-14s11-11s9-|
|-0-----0-----0-----0---|-0-----0-----0-----0---|
|-0-----0-----0-----0---|-0-----0-----0-----0---|
|-----------------------|-----------------------|
 anflug          von          Vernunft

|-----------------------|-----------------------|
|-7s=9--9s12-12s=9--9s7-|-7s=9--9s12-12s=9--9s7-|
|-9s11-11s14-14s11-11s9-|-9s11-11s14-14s11-11s9-|
|-0-----0-----0-----0---|-0-----0-----0-----0---|
|-0-----0-----0-----0---|-0-----0-----0-----0---|
|-----------------------|-----------------------|
				           entschied ich

|--0--0--0--0--0--0--0--0-|--0--0--0--0--0--0--0--0-|
|--0--0--0--0--0--0--0--0-|--0--0--0--0--0--0--0--0-|
|-11-11-11-11-11-11-11-11-|-11-11-11-11-11-11-11-11-|
|--0--0--0--0--0--0--0--0-|--0--0--0--0--0--0--0--0-|
|-11-11-11-11-11-11-11-11-|-11-11-11-11-11-11-11-11-|
|--9--9--9--9--9--9--9--9-|--9--9--9--9--9--9--9--9-|
  mich                       den stimmen zu

|--0--0--0--0--0--0--0--0-|--0--0--0--0--0--0--0--0-|
|--0--0--0--0--0--0--0--0-|--0--0--0--0--0--0--0--0-|
|-11-11-11-11-11-11-11-11-|-11-11-11-11-11-11-11-11-|
|--0--0--0--0--0--0--0--0-|--0--0--0--0--0--0--0--0-|
|-11-11-11-11-11-11-11-11-|-11-11-11-11-11-11-11-11-|
|--9--9--9--9--9--9--9--9-|--9--9--9--9--9--9--9--9-|
 Verschreiben				die mich

|-----------------------|-----------------------|
|-7s=9--9s12-12s=9--9s7-|-7s=9--9s12-12s=9--9s7-|
|-9s11-11s14-14s11-11s9-|-9s11-11s14-14s11-11s9-|
|-0-----0-----0-----0---|-0-----0-----0-----0---|
|-0-----0-----0-----0---|-0-----0-----0-----0---|
|-----------------------|-----------------------|
  steuern

|-----------------------|-----------------------|
|-7s=9--9s12-12s=9--9s7-|-7s=9--9s12-12s=9--9s7-|
|-9s11-11s14-14s11-11s9-|-9s11-11s14-14s11-11s9-|
|-0-----0-----0-----0---|-0-----0-----0-----0---|
|-0-----0-----0-----0---|-0-----0-----0-----0---|
|-----------------------|-----------------------|


|--0--0--0--0--0--0--0--0-|--0--0--0--0--0--0--0--0-|
|--0--0--0--0--0--0--0--0-|--0--0--0--0--0--0--0--0-|
|-11-11-11-11-11-11-11-11-|-11-11-11-11-11-11-11-11-|
|--0--0--0--0--0--0--0--0-|--0--0--0--0--0--0--0--0-|
|-11-11-11-11-11-11-11-11-|-11-11-11-11-11-11-11-11-|
|--9--9--9--9--9--9--9--9-|--9--9--9--9--9--9--9--9-|


|--0--0--0--0--0--0--0--0-|--0--0--0--0--0--0--0--0-|
|--0--0--0--0--0--0--0--0-|--0--0--0--0--0--0--0--0-|
|-11-11-11-11-11-11-11-11-|-11-11-11-11-11-11-11-11-|
|--0--0--0--0--0--0--0--0-|--0--0--0--0--0--0--0--0-|
|-11-11-11-11-11-11-11-11-|-11-11-11-11-11-11-11-11-|
|--9--9--9--9--9--9--9--9-|--9--9--9--9--9--9--9--9-|


------------------------------------------------------------------------
Chorus

|-0-|-0-|-0-|-0-|--0-|-0-|-0-|-0-|-0-|--0-|----|
|-0-|-0-|-0-|-0-|--0-|-0-|-0-|-0-|-0-|--0-|----|
|-7-|-7-|-7-|-9-|-11-|-7-|-7-|-7-|-9-|-11-|----|
|-0-|-0-|-0-|-0-|--0-|-0-|-0-|-0-|-0-|--0-|----|
|-7-|-7-|-7-|-9-|-11-|-7-|-7-|-7-|-9-|-11-|----|
|-0-|-5-|-0-|-7-|--9-|-4-|-5-|-0-|-7-|--9-|----|
  1   2   3   4    5   6   7   8   9   10


		   1
Mach dir keine Sorgen
    2          3           4      5      
Der Schlaf überkommt dich so oder so
              6
Bitte denk an morgen
     7         8           9      10
Der Schlaf überkommt dich so oder so

		   1	
Bitte denk an morgen
    2          3           4       5
Der Schlaf überkommt dich so oder so
               6
Bitte denk an morgen
    7          8           9      10
Der Schlaf überkommt dich so oder so

		   1
Bitte denk an morgen
    2          3           4       5
Der Schlaf überkommt dich so oder so
		   6           7  
Mach dir keine Sorgeeeeeeeeen

8  9  10  2


------------------------------------------------------------------------
wenn man mir schreiben mag usw:
benny: 
der.schoenste.tag@gmx.net
------------------------------------------------------------------------
Comments