Tomoyasu Hotei - Battle Without Honour Or Humanity Chords & Tabs

 

Battle Without Honour Or Humanity Chords & Tabs

Tomoyasu Hotei Chords & Tabs

Version: 1 Type: Tab 0 ratings
1 star 2 stars 3 stars 4 stars 5 stars
comments

Battle Without Honour Or Humanity Tab

   
OFFICIAL SITES 
1) www.hotei.com Needs Japaneese language pack to be displayed in English!
2) www.killbill.com
I think you'll know this song, its the theme to Kill Bill.

----------------------------------------------------------------------------
   Battle Without Honour Or Humanity (Kill Bill Theme) - Tomoyasu Hotei
----------------------------------------------------------------------------

Tabbed by: Riffster31
Email: tom_wheater@hotmail.com

Tuning: Standard

INTRO/OUTRO
e|--------------------------------------------------------|
B|--------------------------------------------------------|
G|--------------------------------------------------------|
D|--------------------------------------------------------|
A|-5-h-7------------------7-----7--------------------0----|
E|-------0------0------0-----0-----0------0------0--------| x16
  PM =================================================|
Downstrokes for the open sixth string, alternate fot the 16th notes.

[ Tab from: http://www.guitartabs.cc/tabs/t/tomoyasu_hotei/battle_without_honour_or_humanity_tab.html ]
 (PART A) - w/delay (478ms) 
     BU        BU             ~~~~~~~~~~~
e|-17-(19)---17-(19)----15-|-17----------17-15-14|
B|-------------------------|---------------------|
G|-------------------------|---------------------|
D|-------------------------|---------------------|
A|-------------------------|---------------------|
E|-------------------------|---------------------|

  (PART B)               BU       ~~~~~~~~~~~
e|----------15--------17(19)-|-17---------------|
B|-17------------------------|------------------|
G|---------------------------|---------------16-|
D|---------------------------|------------------|
A|---------------------------|------------------|
E|---------------------------|------------------|

  (PART C)
e|-15-----------------------------|
B|---------17----------15---14----|
G|--------------------------------|
D|--------------------------------|
A|--------------------------------|
E|--------------------------------|

SONG ORDER:
INTRO/OUTRO
PART A
PART B
PART A
PART C
PART A
PART B
PART A
PART C
INTRO/OUTRO
Comments