Tomorrows Tragedy - Dont Know Chords & Tabs

 

Dont Know Chords & Tabs

Tomorrows Tragedy Chords & Tabs

Version: 1 Type: Tab 0 ratings
1 star 2 stars 3 stars 4 stars 5 stars
comments

Dont Know Tab

Chrous

|---------------------------------------------------------|
|---------------------------------------------------------|
|-----------------12-12-12-12-12-12-12-12-----------------|
|5-5-5-5-5-5-5-5---x--x--x--x--x--x--x--x-----------------|
|5-5-5-5-5-5-5-5--10-10-10-10-10-10-10-10-----------------|
|5-5-5-5-5-5-5-5------------------------------------------|


|---------------------------------------------------------|
|---------------------------------------------------------|
|-----------------12-12-12-12-12-12-12-12-11----------------|
|7-7-7-7-7-7-7-7--x--x--x--x--x--x--x--x--x---------------|
|7-7-7-7-7-7-7-7--10-10-10-10-10-10-10-10-9---------------|
|7-7-7-7-7-7-7-7------------------------------------------|


|---------------------------------------------------------|
|---------------------------------------------------------|
|-----------------12-12-12-12-12-12-12-12-11---------------|
|5-5-5-5-5-5-5-5---x--x--x--x--x--x--x--x-x---------------|
|5-5-5-5-5-5-5-5--10-10-10-10-10-10-10-10-9---------------|
|5-5-5-5-5-5-5-5------------------------------------------|

|--------------------------------------------------------|
|--------------------------------------------------------|
|-----------------12-12-12-12-12-12-12-11-12-------------|
|9-9-9-9-9-9-9-9--x--x--x--x--x--x--x--x--x--------------|
|9-9-9-9-9-9-9-9--10-10-10-10-10-10-10-9-10--------------|
|9-9-9-9-9-9-9-9-----------------------------------------|

verse

|---------------------------------------------------------------------|
|---------------------------------------------------------------------|
|---------------------------------------------------------------------|
|5-5-5-5-5-5-5-5-0-7-7-7-7-7-7-7-7-0-3-3-3-3-3-3-3-3-0-5-5-5-5-5-5-5-5|
|5-5-5-5-5-5-5-5-0-7-7-7-7-7-7-7-7-0-3-3-3-3-3-3-3-3-0-5-5-5-5-5-5-5-5|
|5-5-5-5-5-5-5-5-0-7-7-7-7-7-7-7-7-0-3-3-3-3-3-3-3-3-0-5-5-5-5-5-5-5-5|
[ Tab from: http://www.guitartabs.cc/tabs/t/tomorrows_tragedy/dont_know_tab.html ]
|---------------------------------------------------------------------|
|---------------------------------------------------------------------|
|---------------------------------------------------------------------|
|7-7-7-7-7-7-7-7-0-9-9-9-9-9-9-9-9-0-3-3-3-3-3-3-3-3-0-5-5-5-5-5-5-5-5|
|7-7-7-7-7-7-7-7-0-9-9-9-9-9-9-9-9-0-3-3-3-3-3-3-3-3-0-5-5-5-5-5-5-5-5|
|7-7-7-7-7-7-7-7-0-9-9-9-9-9-9-9-9-0-3-3-3-3-3-3-3-3-0-5-5-5-5-5-5-5-5|




Chrous

|---------------------------------------------------------|
|---------------------------------------------------------|
|-----------------12-12-12-12-12-12-12-12-----------------|
|5-5-5-5-5-5-5-5---x--x--x--x--x--x--x--x-----------------|
|5-5-5-5-5-5-5-5--10-10-10-10-10-10-10-10-----------------|
|5-5-5-5-5-5-5-5------------------------------------------|


|---------------------------------------------------------|
|---------------------------------------------------------|
|-----------------12-12-12-12-12-12-12-12-11----------------|
|7-7-7-7-7-7-7-7--x--x--x--x--x--x--x--x--x---------------|
|7-7-7-7-7-7-7-7--10-10-10-10-10-10-10-10-9---------------|
|7-7-7-7-7-7-7-7------------------------------------------|


|---------------------------------------------------------|
|---------------------------------------------------------|
|-----------------12-12-12-12-12-12-12-12-11---------------|
|5-5-5-5-5-5-5-5---x--x--x--x--x--x--x--x-x---------------|
|5-5-5-5-5-5-5-5--10-10-10-10-10-10-10-10-9---------------|
|5-5-5-5-5-5-5-5------------------------------------------|

|--------------------------------------------------------|
|--------------------------------------------------------|
|-----------------12-12-12-12-12-12-12-11-12-------------|
|9-9-9-9-9-9-9-9--x--x--x--x--x--x--x--x--x--------------|
|9-9-9-9-9-9-9-9--10-10-10-10-10-10-10-9-10--------------|
|9-9-9-9-9-9-9-9-----------------------------------------|

x 2

bridge


|--------------------------------------------------------|
|--------------------------------------------------------|
|--------------------------------------------------------|
|9-9-9-9-9-----9-9-9-9-9-----5-5-5-5-5-----7-7-7-7-7-5-7-| x 4
|9-9-9-9-9-----9-9-9-9-9-----5-5-5-5-5-----7-7-7-7-7-5-7-|
|9-9-9-9-9-----9-9-9-9-9-----5-5-5-5-5-----7-7-7-7-7-5-7-|


chorus x4

then let ring to fade out



Comments