Tommy Tutone - 867 5309 Jenny Jenny Chords & Tabs

 

867 5309 Jenny Jenny Chords & Tabs

Tommy Tutone Chords & Tabs

Version: 1 Type: Tab 1 rating
1 star 2 stars 3 stars 4 stars 5 stars
comments

867 5309 Jenny Jenny Tab

   
tabbed by Chris Mullett

Artist: Tommy Tutones

Song: 867-5309 (Jenny Jenny)

Tuning: 1/2 step up (F-A#-D#-G#-C-F)

Riff A

e)------0---0---0---0-------
b)----5---5---5---4---------
g)--6---7---6---4-----------
d)--------------------------              x 2
a)--------------------------
e)--------------------------




Riff B


e)--------------------------------
b)--------------------------------
g)-----7-7------------------------
d)-4--47-7--7-99------------------       x 10
a)-4--45-5--7-99------------------
e)-2--2-----5-77------------------

With distortion

Riff C
[ Tab from: http://www.guitartabs.cc/tabs/t/tommy_tutone/867_5309_jenny_jenny_tab.html ]
e)----------------------------------------
b)----------------------------------------
g)----------------------------------------
d)-13-13/11--10---------------------------
a)-13-13/11--10-11-/11--11--11--13--13----
e)--------------11-/11--11--11--13--13----


Pre-Chorus

Jenny I got your number, I need to make you mine, Jenny don't change your number
e)------------------------------------------------------------
b)------------------------------------------------------------
g)--------------------------------7---------------------------
d)-2--2-2-2-2-2-2-2-2--2--2-2--7--7--2--2-2-2-2---------------
a)-2--2-2-2-2-2-2-2-2--2--2-2--7--5--2--2-2-2-2---/5---4--0---
e)-0--0-0-0-0-0-0-0-0--0--0-0--5-----0--0-0-0-0---------------
Comments