Tommy Lee - Watch You Lose Chords & Tabs

 

Watch You Lose Chords & Tabs

Tommy Lee Chords & Tabs

Version: 1 Type: Bass Tab 0 ratings
1 star 2 stars 3 stars 4 stars 5 stars
comments

Watch You Lose Bass Tab

   
Tommy Lee - Watch You Lose (Tommyland:The Ride 8/9/2005)

Standard Tuning.


First time at tabbing..feedback appreciated! (cykosixx@gmail.com)

* = Let note ring.


intro

g ----------------------------------|
d ----------------------------------|
a -0-0-0-0-0-0-0-0-4-4-4-4-4-2-2-0--| x2
e ----------------------------------|

verse

g ----------------------------------|
d ----------------------------------|
a -0-0-0-0-0-0-0-0-4-4-4-4-4-4-2-0--| x3
e ----------------------------------|

g ---------------------------------------------------------------------------------------------|
d ---------------------------------------------------------------------------------------------|
a -0-0-0-0-0-0-4-4-4-4-4-2-2-0-----------------0-0-0-0-0-0-0-0-----------------0-0-0-0-0-0-0-0-|
e -----------------------------2-2-2-2-2-2-2-2-----------------2-2-2-2-2-2-2-2-----------------|


Chorus

g -------------------------------------------------|
d -------------------------------------------------|
a -4-4-4-4-4-4-0-0-0-0-0-0-2-2-2-2-----------------| x3
e -------------------------------------------------|


into verse
g ---------------------------------|
d ---------------------------------|
a -0-0-0-0-0-0-0-0-4-4-4-4-4-2-2-0-|
e ---------------------------------|


Verse

g ----------------------------------|
d ----------------------------------|
a -0-0-0-0-0-0-0-0-4-4-4-4-4-2-2-0--| x3
e ----------------------------------|
[ Tab from: http://www.guitartabs.cc/tabs/t/tommy_lee/watch_you_lose_btab.html ]
g ---------------------------------------------------------------------------------------------|
d ---------------------------------------------------------------------------------------------|
a -0-0-0-0-0-0-4-4-4-4-4-2-2-0-----------------0-0-0-0-0-0-0-0-----------------0-0-0-0-0-0-0-0-|
e -----------------------------2-2-2-2-2-2-2-2-----------------2-2-2-2-2-2-2-2-----------------|


Chorus

g -------------------------------------------------|
d -------------------------------------------------|
a -4-4-4-4-4-4-0-0-0-0-0-0-2-2-2-2-----------------| x3
e -------------------------------------------------|

End

g -------------------------------------------------|
d -------------------------------------------------|
a -4-4-4-4-4-4-0*----------------------------------|
e -------------------------------------------------|


Bridge
g ----------------------------------------------------------------|
d ----------------------------------------------------------------|
a ----------------0-0-0-0-0-0-0-0-----------------0-0-0-0-0-0-0-0-| x2
e 2-2-2-2-2-2-2-2-----------------2-2-2-2-2-2-2-2-----------------|

Bridge - no bass but this works if you want to play...

g ----------------------------------------------------------------------------|
d ----------------------------------------------------------------------------|
a -4*-----0*-----2*-----4*-----0*-----2*------4*------0*-----2*-----4*-----0--|
e ----------------------------------------------------------------------------|

Chorus

g -------------------------------------------------|
d -------------------------------------------------|
a -4-4-4-4-4-4-0-0-0-0-0-0-2-2-2-2-----------------| x7
e -------------------------------------------------|

End

g -------------------------------------------------|
d -------------------------------------------------|
a -4-4-4-4-4-4-0*----------------------------------|
e -------------------------------------------------|
Comments