Tommy Lee - Hold Me Down Chords & Tabs

 

Hold Me Down Chords & Tabs

Tommy Lee Chords & Tabs

Version: 5 Type: Tab 0 ratings
1 star 2 stars 3 stars 4 stars 5 stars
comments

Hold Me Down Tab

-------------------------------------------------------------------------------
			     HOLD ME DOWN - TOMMY LEE
-------------------------------------------------------------------------------

Tabbed by:DAVID MILLAR
Email:TALCULWUN@HOTMAIL.COM

I think it sounds best played like this:
Tuning:FLAT DROP D

INTRO AND VERSE
Eb|---0----------------0------------------0--0------0---3-----------|
Bb|---3--3--1---------3--3--1----------3--3--3-------3--------------|
Gb|---2--2--2--2-----0--0--0--0------2---------------0--------------|
Db|---0----------------2------------------0---------------0---------|
Ab|---------------------------------------------------------3-------|
Db|-----------------------------------------------------------------|
[ Tab from: http://www.guitartabs.cc/tabs/t/tommy_lee/hold_me_down_tab_ver_5.html ]
CHORUS AND BRIDGE -  LISTEN FOR STRUMMING PATTERN
Eb|-----0------3------0------3-----------------0------3------0------3---------|
Bb|-----3------3------3------3-----3-----------3------3------3------3---------|
Gb|-----2--- --5------2------5-----3-----------2------5------2------5---------|
Db|-----0------5------0------5-----3-----------0------5------0------5------5--|
Ab|-----0------3------0------3-----1-----------0------3------0------3------5--|
Db|-----0-----(3)-----0-----(3)----------------0-----(3)-----0-----(3)-----5--|
                        |
-optional E (3) on b power chord gives a crunchier sound



INTRO
VERSE X2
CHORUS 
VERSE X3
CHORUS 
BRIDGE
CHORUS
===============================================================================
Comments